Oops, an error
Loading. Please wait.

Ever So Shy Tab

version 2
version 2

Whole song

55 views 1 this week
no commentswrite comment
1 2 3 4 5
3 more votes to show rating
add to favorites
launch autoscroll
font size
0
reset
how to read this tab
guitar tuner
×
Best way to learn
"Ever So Shy"
Autoscroll
slow
fast
+/-
esc
set tempo
stop
Author
Difficulty
  follow
intermediate
About this tab version
Full song and includes solo. Was this info helpful? Yes No
"Ever So Shy" by General Fiasco
Tabbed by: Brands99



[00:14] "We'll just sit here..."
e|--------------------------------------------------------------------------|
B|--------------------------------------------------------------------------|
G|--------------------7-7-7-8-8-8-8-8-8-----------------7-7-7-8-8-8-8-8-8---| 
D|----5-5-5-5-5-5-5-5--------------------5-5-5-5-5-5-5-5--------------------|
A|--------------------------------------------------------------------------|
E|--------------------------------------------------------------------------|
                                   *PM*

  "thinking out loud..."
e|--------------------------------------------------------------------------|
B|--------------------------------------------------------------------------|
G|--------------------7-7-7-8-8-8-8-8-8-----------------7-7-7-8-8-8-8-8-8---| 
D|----8-8-8-8-8-8-8-8-------------------6-6-6-6-6-6-6-6---------------------|
A|--------------------------------------------------------------------------|
E|--------------------------------------------------------------------------|
                                   *PM*
          
e|-----------------------------------------------|
B|-----------------------------------------------|
G|-----------------------------------------------|  x2 
D|-------8-------10-------8-------8---10-8----8--| 
A|---/10---10-10----10-10------10---10-----10----|
E|-----------------------------------------------|
         *Lights palm muting*


[00:33] "is all I get told..."
e|-------------------------------------------------------|    |------|
B|-------------------------------------------------------|    |------|
G|----------------------------8--------------------------|    |------|
D|--8--------5--------6-------8-(x8)---------------------| x4 |------| end on this
A|--8-(x8)---5-(x3)---6-(x3)--6-------8-8-8/10-10-10-10--|    |--6~--|
E|--6--------3--------4----------------------------------|    |------|


[00:58] "and oh we are..."
e|--------------------------------------------------------------------------|
B|--------------------------------------------------------------------------|
G|--------------------7-7-7-8-8-8-8-8-8-----------------7-7-7-8-8-8-8-8-8---| 
D|----5-5-5-5-5-5-5-5--------------------5-5-5-5-5-5-5-5--------------------|
A|--------------------------------------------------------------------------|
E|--------------------------------------------------------------------------|
                                   *PM*

 "I know we're getting there..."

  "thinking out loud..."
e|--------------------------------------------------------------------------|
B|--------------------------------------------------------------------------|
G|--------------------7-7-7-8-8-8-8-8-8-----------------7-7-7-8-8-8-8-8-8---|  x4
D|----8-8-8-8-8-8-8-8-------------------6-6-6-6-6-6-6-6---------------------|
A|--------------------------------------------------------------------------|
E|--------------------------------------------------------------------------|
                                   *PM*

[01:11] "Waiting around"      *a second guitar plays this during the part above*
e|-----------------------------------------------------------------------------------|
B|-----------11----------11------------------11----------11-----------11----------11-|
G|----------------------------(x2)---------------------------------------------------|
D|---13-13-13----13-13-13-----------12-12-12----12-12-12-----10-10-10----10-10-10----|
A|-----------------------------------------------------------------------------------|
E|-----------------------------------------------------------------------------------|
                              

[01:23]
e|-----------------------------------------------|
B|-----------------------------------------------|
G|-----------------------------------------------| x2
D|-------8-------10-------8-------8---10-8----8--|
A|---/10---10-10----10-10------10---10-----10----|
E|-----------------------------------------------|
              *Light palm muting*

[01:30] "is all I get told..."
e|-------------------------------------------------------|    
B|-------------------------------------------------------|    
G|----------------------------8--------------------------|    
D|--8--------5--------6-------8-(x8)---------------------| x4 
A|--8-(x8)---5-(x3)---6-(x3)--6-------8-8-8/10-10-10-10--|    
E|--6--------3--------4----------------------------------|    

[01:54] "whilst you know..."
e|-----------------------------------------------|
B|-----------------------------------------------|
G|-----------------------------------------------|
D|-------8-------10-------8-------8---10-8----8--| x8   Heavy palm muting during this
A|---/10---10-10----10-10------10---10-----10----|
E|-----------------------------------------------|

[02:20]
e|-------------------------------------------------------|    
B|-------------------------------------------------------|    
G|----------------------------8--------------------------|    
D|--8--------5--------6-------8-(x8)---------------------| x4 
A|--8-(x8)---5-(x3)---6-(x3)--6-------8-8-8/10-10-10-10--|    
E|--6--------3--------4----------------------------------|   

 
 [Solo] Gtr I [02:44]
e|---------------------------------------------------------------------------------------|
B|----------------------------------------15-15-15-15-15b16-15b16-15-16-18-18-18-`8-18---|
G|--15-15-15-15----------------17-15-----------------------------------------------------|
D|--------------15-13-13-13-13-------(x2)------------------------------------------------|
A|---------------------------------------------------------------------------------------|
E|---------------------------------------------------------------------------------------|

e|-----------------------------------------------------------------------------------------|
B|----------------------------------------15-15-15-15-15b16-15b16-15-16-18-18-18-18-18b19--|
G|--15-15-15-15----------------17-15-------------------------------------------------------|
D|--------------15br13-13-13-13-------(x2)-------------------------------------------------|
A|-----------------------------------------------------------------------------------------|
E|-----------------------------------------------------------------------------------------|

Gtr II
e|-------------------------------------------------------------------|
B|-------------------------------------------------------------------|
G|-------------------------------8-8-8-8---10-10-10---11-11-11-11----|     This is played underneath
D|---8-8-8-8---5-5-5---6-6-6-6---8-8-8-8---10-10-10---11-11-11-11----| x4  the solo
A|---8-8-8-8---5-5-5---6-6-6-6---6-6-6-6---8--8--8----10-10-10-10----|
E|---6-6-6-6---3-3-3---4-4-4-4---------------------------------------|


[Outro] [03:11] "Let's get wasted..."
e|--------------------------------------------------------------------------|
B|--------------------------------------------------------------------------|
G|--------------------7-7-7-8-8-8-8-8-8-----------------7-7-7-8-8-8-8-8-8---| 
D|----5-5-5-5-5-5-5-5--------------------5-5-5-5-5-5-5-5--------------------|
A|--------------------------------------------------------------------------|
E|--------------------------------------------------------------------------|
                                   *PM*

e|----------------------------------------------------------------|
B|----------------------------------------------------------------|
G|--------------------7-7-7-8-8-8-8-8-8-----------------7-7-7-8---|  
D|----8-8-8-8-8-8-8-8-------------------6-6-6-6-6-6-6-6-----------|
A|----------------------------------------------------------------|
E|----------------------------------------------------------------|
                                   *PM*

************************************
| b   Bend
| br  Bend release
| /   Slide up
| \   Slide down
| PM  Palm mute
************************************
Suggest correction
Give kudos to tab author, rate the tab!
1 2 3 4 5
comments
print report bad tab
guest
You may want to rate the tab now too:
select rating
Wanna post a correction for this tab? Suggest correction