Oops, an error
Loading. Please wait.

Nandito tab

4,979 views 12 this week
3 commentsread comments
1 2 3 4 5
2 more votes to show rating
add to favorites
×
Save as Personal and add changes to this tab that will be seen only by you. Learn more ›
×
You can save this tab as Personal to edit and correct it or add notes. All changes will be seen only by you. Learn more »
launch autoscroll
font size
0
reset
how to read this tab
guitar tuner
edit
Autoscroll
slow
fast
+/-
esc
set tempo
stop
Author
Difficulty
Nandito by General Luna

*I love this band, so I chose this song as my first tablature

Standard Tuning

Intro: Am - E x3, F G Am

V1:
Am     E   Am                E
   O Inay, ito ang aking buhay
Am                      E
Hanggang sa'king pag himlay
F   G  Am
tumitibay

V2:
Am          E   Am            E
  wag magtampo,iniintindi ko kayo
Am               E
wala nang mapagtanto
   F   G  Am
sa buhay ko
   F   G
sa buhay

Chorus:
C                    G                F
Di ko alam kung ba't tayo nalang ang nandito
sa buhay ko x2

(break)Verse Chords 

V3
Am      E  Am              E
   O itay, hindi ako mapalagay
Am                        E
sadya bang parang may sablay
    F   G  Am
ang buhay ko
    F   G
ang buhay

Chorus

Bridge:
D     
  Lahat may alam (wala kang alam)
Em
  Lahat may sagot (wala kang sagot)
F           F em Em F Em Em F
Kahit naman wala naman nagtatanong
D                 Em
  wala kang alam (wala kang alam)
F
wala kang sagot

Solo
* I only got audry's solo in. It comes a little after Caren's but when I watched 
them live, they start the same time.
e--------------------------------------------------|
B-----------------------8--------------------------|
G--------5--7--7p7--7s9----9-7-5--7p5--------------|
D---5h7-------------------------------7--5--5h7----|
A---0----------------------------------------------|
E--------------------------------------------------|

e---------------------------------------------------|
B------------------8--------------------------------|
G---7b-5-5h7--7s9-----9-7-5--7p5--------------------|
D--------------------------------7--5--5h7----------|
A---------------------------------------------------|
E---------------------------------------------------|

e-------------------x-5-5------|
B-------------------x-5-5------|
G-------------------x-5-5------|
D------------5-5h7--x-5-5------|
A-------5-7--------------------|
E---5-8------------------------|

Chorus

Outro
* Again, I only tabbed Audry's part, still figuring out carens

e-----------------------              ------------------------|
B-----------------------  do this a   ------------------------|
G-----------------------  couple of   ------------------------|
D---5--2----------------  times. then --5---2-----------------|
A---------5--3--5--3----   this >>>>> ----------3-------------|
E-----------------------              ------------------------|

Just Loop it towards the end:-)

Hope I got it right. I watched their live video over and over.

http://www.generalluna.com/web2/index.html

            
            
Suggest correction
Creating personal tab
Creating personal tab
You can edit any tab online and save it as your Personal.

You can edit, replace or remove any tab part or add personal notes – all changes will be seen only by you.

Personal tabs can be accessed anytime from any device, even offline.
Learn more »
Give kudos to tab author, rate the tab!
1 2 3 4 5
comments
print report bad tab
3 comments total.
0 reply
akosijaypee 10 Apr 19, 2011 04:12 AM

hey. nice chords. I think it might be nice if you would put the intro..

0 reply
akosijaypee 10 Apr 19, 2011 04:15 AM

E--------------------------------------------------|
B--------------------------------------------------|
G---17/16-16/12-----17/16-12/9---------------------|
D----x-x---x--x------x-x--x--x---------------------| x2
A---15/14-14/10-----15/14-10/7---------------------|
E--------------------------------------------------|

E--------------------------------------------------|
B--------------------------------------------------|
G---17/16-16/12-----17/16-12/9--9/10-10/12~--------|
D----x-x---x--x---x-x--x---x-x--x-x--x--x----------|
A---15/14-14/10-----15/14-10/7--7/8--8/10~---------|
E--------------------------------------------------|

0 reply
kenshi99 10 Jul 14, 2014 09:22 AM

nice chords.. and i think.. you should add some bass chords too.. :) thats rely helpful .. newbie here :)

guest
You may want to rate the tab now too:
select rating
Wanna post a correction for this tab? Suggest correction