Oops, an error
Loading. Please wait.

Alaba Tab

version 1
version 1

Whole song

88 views 1 this week
no commentswrite comment
1 2 3 4 5
1 last vote to show rating
add to favorites
launch autoscroll
font size
0
reset
how to read this tab
guitar tuner
×
Best way to learn
"Alaba"
Autoscroll
slow
fast
+/-
esc
set tempo
stop
Bueno que Dios le bendiga grandemente,
esto es la version original de la cancion solo
genereasion solo que falta una parte, espero que les guste.....


intro
e----------------------------------------------------
B--12-12-12---------12-12-12----------12-12-12-------
G-----------9-9-9------------9-9-9------------9-9----
D----------------------------------------------------
A----------------------------------------------------
E----------------------------------------------------

e-----------------------------------------------------
B--s10-10-10-9-9-9------------------------------------
G-------------------11-11-11-9-9-9-8-8-8>>s9----------
D-----------------------------------------------------
A-----------------------------------------------------
E-----------------------------------------------------

e-----------------------------------------------------
B--12-12-12---------12-12-12----------12-12-12--------
G-----------9-9-9------------9-9-9------------9-9-----
D-----------------------------------------------------
A-----------------------------------------------------
E-----------------------------------------------------

e------------------------------------------------------
B--s10-10-10-9-9-9-------------------------------------
G-------------------11-11-11-9-9-9-8-8-8-s9------------
D-------------------------------------------9----------
A------------------------------------------------------
E------------------------------------------------------

E
Dios no rechaza oración
               A    D-C#m
oración es alimento
F#m                        B
nunca vi un justo sin respuesta
                   E
o quedar en sufrimiento

e------------------------------12-----
B---------------------s12-10-8--------
G-------------------------------------  se repite x4
D-------------------------------------
A-------------------------------------
E-------------------------------------

E
Basta solamente esperar
                   A     D-C#m
lo que Dios ira a hacer
F#m                      B
cuando el levanta sus manos
               E
es hora de vencer


       E
Oh alaba

simplemente alaba
               A
estas llorando alaba

en la prueba alaba
                  B
estas sufriendo alaba

no importa alaba
                  E      B
tu alabanza el escuchara

       E
La gente necesita entender
                      A   (A-G#)
lo que Dios esta hablando
F#m                    B
cuando el queda en silencio
                   E
es porque esta trabajando
e------------------------------12-----
B---------------------s12-10-8--------
G-------------------------------------  x4
D-------------------------------------
A-------------------------------------
E-------------------------------------
E
Basta solamente esperar
                   A (A-G#)
lo que Dios ira a hacer
F#m                     B
cuando El extiende sus manos
              E   B
es hora de vencer


       E
Oh alaba....
simplemente alaba
e-------12-12-12-12-------------------------------
B------------------12-12-12--10-10-10-10-9-9-9-9--
G-------------------------------------------------
D-------------------------------------------------
A-------------------------------------------------
E-------------------------------------------------

               A
estas llorando alaba
en la prueba alaba

e-------9-9-9-9-----------------------------------
B------------------12-12-12--10-10-10-10-9-9-9-9--
G-------------------------------------------------
D-------------------------------------------------
A-------------------------------------------------
E-------------------------------------------------
                  B
estas sufriendo alaba
no importa alaba

e----11-11-11-11----9-9-9-9-----------------------
B---------------------------12-12-12-12--11-11-11-11
G---------------------------------------------
D-------------------------------------------------
A-------------------------------------------------
E-------------------------------------------------
      B          E
tu alabanza el escuchara


E                 F#        G#
Dios va al frente abriendo caminos
C#m               D#        E
quebrando cadenas sacando espinas
A
manda a sus angeles contigo a luchar
B
el abre puertas nadie puede cerrar

E               F#        G#
El trabaja para los que confian
C#m             D#        E
camina contigo de noche y de dia
A
levanta tus manos tu victoria llego
B
comienza a cantar y


//
         E
alaba a Dios
         C#m
alaba a Dios
         A
alaba a Dios
         B
alaba a Dios//


(Parte rapeada..)


se vuelve hacer el intro de la primera parte


       E
Oh alaba....

E
Dios va al frente abriendo caminos....

//
         E
alaba a Dios
         C#m
alaba a Dios
         A
alaba a Dios
         B
alaba a Dios//

         E
Ye ye yea...
        C#m
Ye ye yea...
         A
Ye ye yea...
         B
Ye ye yea...

Bueno aqui les dejo esta cancion de generasion
es super buena la recomiendo,, saludos a todos...
 bueno cualquier duda aqui esta mi correo jairoabd_15@ desde
santa ana trujillo VEnezuela DIos es PAz=..................
Suggest correction
Give kudos to tab author, rate the tab!
1 2 3 4 5
comments
print report bad tab
guest
You may want to rate the tab now too:
select rating
Wanna post a correction for this tab? Suggest correction