Oops, an error
Loading. Please wait.

Alaba Tab

version 2
version 2

Whole song

44 views 1 this week
no commentswrite comment
1 2 3 4 5
3 more votes to show rating
add to favorites
launch autoscroll
font size
0
reset
how to read this tab
guitar tuner
×
Best way to learn
"Alaba"
Autoscroll
slow
fast
+/-
esc
set tempo
stop
Bueno que Dios le bendiga grandemente,
esto es la version original de la cancion solo
genereasion solo que falta una parte, espero que les guste.....


intro
e-----------------------------------------------------------
B--10S12-12-12---------10S12-12-12----------10S12-12--------
G---------------9-9-9---------------9-9-9------------9-9----
D-----------------------------------------------------------
A-----------------------------------------------------------
E-----------------------------------------------------------

e-----------------------------------------------------
B---10-10-10-9-9-9------------------------------------
G-------------------11-11-11-9-9-9-8-9----------------
D-----------------------------------------------------
A-----------------------------------------------------
E-----------------------------------------------------

e-----------------------------------------------------------
B--10S12-12-12---------10S12-12-12----------10S12-12--------
G---------------9-9-9---------------9-9-9------------9-9----
D-----------------------------------------------------------
A-----------------------------------------------------------
E-----------------------------------------------------------

e-------------------------------------------------------
B---10-10-10-9-9-9--------------------------------------
G-------------------11-11-11-9-9-9-8-9-9----------------
D--------------------------------------9----------------
A-------------------------------------------------------
E-------------------------------------------------------

E
Dios no rechaza oración
               A    D-C#m-D
oración es alimento
F#m                        B
nunca vi un justo sin respuesta
                   E
o quedar en sufrimiento

e--------------------------------12-----
B---------------------10s12-10-8--------
G--------------------------------------- se repite x3
D---------------------------------------
A---------------------------------------
E---------------------------------------

                            Tapping
e--------------------12Beng/19----------
B---------10s12-10-8--------------------
G---------------------------------------
E
Basta solamente esperar
                   A     D-C#m-D
lo que Dios ira a hacer
F#m                      B
cuando el levanta sus manos
               E
es hora de vencer


       E
Oh alaba

simplemente alaba
               A
estas llorando alaba

en la prueba alaba
                  B
estas sufriendo alaba

no importa alaba
                  E      B
tu alabanza el escuchara

       E
La gente necesita entender
                      A   (A-G#)
lo que Dios esta hablando
F#m                    B
cuando el queda en silencio
                   E
es porque esta trabajando
e------------------------------12-----
B---------------------s12-10-8--------
G-------------------------------------  x2

e-12H17P12H16P12H14---------------
B---------------------15Beng-12---
G---------------------------------

Basta solamente esperar
                   A (A-G#)
lo que Dios ira a hacer
F#m                     B
cuando El extiende sus manos
              E   B
es hora de vencer


       E
Oh alaba....
simplemente alaba
e-------12-12-12-12-------------------------------
B------------------12-12-12--10-10-10-10-9-9-9-9--
G-------------------------------------------------
D-------------------------------------------------
A-------------------------------------------------
E-------------------------------------------------

               A
estas llorando alaba
en la prueba alaba

e-------9-9-9-9-----------------------------------
B------------------12-12-12--10-10-10-10-9-9-9-9--
G-------------------------------------------------
D-------------------------------------------------
A-------------------------------------------------
E-------------------------------------------------
                  B
estas sufriendo alaba
no importa alaba

e----11-11-11-11----9-9-9-9-----------------------
B---------------------------12-12-12-12--11-11-11-11
G---------------------------------------------
D-------------------------------------------------
A-------------------------------------------------
E-------------------------------------------------
      B          E
tu alabanza el escuchara


E
Dios va al frente abriendo caminos
C#m
quebrando cadenas sacando espinas
A
manda a sus angeles contigo a luchar
B
el abre puertas nadie puede cerrar

E
El trabaja para los que confian
GT2
G-9-9-9-9---9-9-11-11-13-13--
D----------------------------
A-7-7-7-7---7-7-9-9--11-11---

C#m
camina contigo de noche y de dia

G-6-6-6-6---6-6-8-8-9-9--
D------------------------
A-4-4-4-4---4-4-6-6-7-7--

A
levanta tus manos tu victoria llego

D-7-7-7-7---7-7-7-7--
A--------------------
E-5-5-5-5---5-5-5-5--

B
comienza a cantar y

D-9-9-9-9---9-9-9-9--
A--------------------
E-7-7-7-7---7-7-7-7--


//
         E
alaba a Dios
         C#m
alaba a Dios
         A
alaba a Dios
         B
alaba a Dios//


(Parte rapeada..)


se vuelve hacer el intro de la primera parte


       E
Oh alaba....

E
Dios va al frente abriendo caminos....

//
         E
alaba a Dios
         C#m
alaba a Dios
         A
alaba a Dios
         B
alaba a Dios//

         E
Ye ye yea...
        C#m
Ye ye yea...
         A
Ye ye yea...
         B
Ye ye yea...
Suggest correction
Give kudos to tab author, rate the tab!
1 2 3 4 5
comments
print report bad tab
guest
You may want to rate the tab now too:
select rating
Wanna post a correction for this tab? Suggest correction