Oops, an error
Loading. Please wait.

Como Duele Tab

version 1
version 1

Whole song

35 views 1 this week
no commentswrite comment
1 2 3 4 5
3 more votes to show rating
add to favorites
launch autoscroll
font size
0
reset
how to read this tab
guitar tuner
×
Best way to learn
"Como Duele"
Autoscroll
slow
fast
+/-
esc
set tempo
stop
INTRO.... X2              ::
                          ::
          C#m             ::       RIFF 1
e|---------------------|  :: e|--------------|
B|-------5-----7-----5-|  :: B|--------------|
G|-----6---6-------6---|  :: G|-11-11b11-9-7-|
D|---6------6----6-----|  :: D|--------------|
A|-4-------------------|  :: A|--------------|
E|---------------------|  :: E|--------------|
                          ::
          A               :: e|-------------------------|
e|------------------|     :: B|-------------------------|
B|------------------|     :: G|-11b11-9-7--7-7-9-9-(11)-|
G|-6-6--------------|     :: D|-------------------------|
D|-7---7-6-7--7-6---|     :: A|-------------------------|
A|-7--------------7-|     :: E|-------------------------|
E|-5----------------|     ::
                          ::
          E               ::
e|------------------|     ::
B|---7--------------|     ::
G|-9---9-8-9--9-8---|     ::
D|-9--------------9-|     ::
A|------------------|     ::
E|------------------|     ::
                          ::
       B                  ::
e|-----------|            ::
B|-----------|            ::
G|-8-8-8-8-8-|            ::
D|-9-9-9-9-9-|            ::
A|-9-9-9-9-9-|            ::
E|-7-7-7-7-7-|            ::
                          ::
::::::::::::::::::::::::::::

 PAL MUTED
  e|---|
  B|---|
  G|-9-|
  D|-9-|
  A|-7-|
  E|---|

E                          A
AY SEÑOR AY MI DIOS NO PUEDO EVITAR LLORAR
     B                          E
AL SABER QUE UNA VEZ MAS TE HE FALLADO
                          A
Y DUELE MAS VERTE A TI LLORAR POR MI ERROR
       B                         E
Y CON TODO ESO Y MAS SEGUIRME AMANDO


         -CORO-

C#m                    A
AY AY AY AYYYYY COMO DUELE!
           E RIFF 1    B
VERTE MI DIOS LLORAR ASIII!
C#m                    A
AY AY AY AYYYY COMO DUELE
           E RIFF 1             B
FALLAR A AQUEL QUE DIO TODO POR MI


E                     A
AY SEÑOR AY MI DIOS SENTI LEJOS EL AMOR
       B                         E
DE AQUELLOS QUE EN MI ERROR ME DESECHABAN
                                 A
MAS TU GRACIA TU PERDON FUE SUFICIENTE PARA MI
          B                 E
DOLOR, ALIVIO Y ME HAS PERDONADO

            -CORO-

C#m                    A
AY AY AY AYYYYY COMO DUELE!
           E RIFF 1    B
VERTE MI DIOS LLORAR ASIII!
C#m                    A
AY AY AY AYYYY COMO DUELE
           E RIFF 1             B
FALLAR A AQUEL QUE DIO TODO POR MI


  A              E         C#m             B
DESPUES DE ESTO SE QUE TU AMOR ES INCOMPARABLE
  A              E         C#m            B
DESPUES DE ESTO NO IRE A OTRO LUGAR   NO NO NO
  A              E         C#m            B
DESPUES DE ESTO SE QUE TU AMOR ES INCOMPARABLE
  A              E                C#m
DESPUES DE ESTO NO IRE A OTRO LUGAAAAR

            -CORO-

C#m                    A
AY AY AY AYYYYY COMO DUELE!
           E RIFF 1    B
VERTE MI DIOS LLORAR ASIII!
C#m                    A
AY AY AY AYYYY COMO DUELE
           E RIFF 1             B
FALLAR A AQUEL QUE DIO TODO POR MI


SOLO DE GUITARRA....

e|-----------------------------------------|
B|------------------7-9b-10b10-9-7-9b-(7v)-|
G|-(9b)-9b9r9b--7-9------------------------|
D|-----------------------------------------|
A|-----------------------------------------|
E|-----------------------------------------|

                |  TAPING - TAPING - TAPING - TAPING - TAPING  |
e|--------------|----------------------------------------------|
B|-7-9/14-16-14-|-16h12h14-16h12h14-16h12h14-16h12h14-16h12h14-|
G|--------------|----------------------------------------------|
D|--------------|----------------------------------------------|
A|--------------|----------------------------------------------|
E|--------------|----------------------------------------------|

e|-------12-14b-14-12--------------12-14/16--14-12-14b14-|
B|-12-14--------------14-12--12-14-----------------------|
G|-------------------------------------------------------|
D|-------------------------------------------------------|
A|-------------------------------------------------------|
E|-------------------------------------------------------|

e|----12-14-16b-(16)-|              O.V.I.C.E
B|-14----------------|   "I.D.E.A" Iglesia Dios Es Amor
G|-------------------|  La Fria Edo. Tachira - VENEZUELA
D|-------------------|
A|-------------------|            "LUIS MIGUEL"
E|-------------------|
Suggest correction
Give kudos to tab author, rate the tab!
1 2 3 4 5
comments
print report bad tab
guest
You may want to rate the tab now too:
select rating
Wanna post a correction for this tab? Suggest correction