Oops, an error
Loading. Please wait.

I Love You Lord solo tab

136 views 1 this week
no commentswrite comment
1 2 3 4 5
3 more votes to show rating
add to favorites
×
Save as Personal and add changes to this tab that will be seen only by you. Learn more ›
×
You can save this tab as Personal to edit and correct it or add notes. All changes will be seen only by you. Learn more »
launch autoscroll
font size
0
reset
how to read this tab
guitar tuner
edit
Autoscroll
slow
fast
+/-
esc
set tempo
stop
Author
[Intro]

C#m - B/Eb - E x2

[Verse]

e|---------------------------------------------------|
B|-5-----5---7---9-----9-|-10---9---4---5---4-----4--|
G|---------------------------------------------------|
D|---------------------------------------------------|
A|---------------------------------------------------|
E|---------------------------------------------------|

e|------------------------|-------------------------|
B|-5-----5---7---9-----9--|-10---9------10------12--|
G|------------------------|-----------9------11-----|
D|------------------------|---------7------9--------|
A|--------------------------------------------------|
E|--------------------------------------------------|


e|--------------------------------|---------------------------------|
B|-5---5---5---7---9---9---9---4--|-5---5---5---7---9---9---9---9-4-|
G|------------------------------------------------------------------|
D|------------------------------------------------------------------|
A|------------------------------------------------------------------|
E|------------------------------------------------------------------|

e|------------------------------------------------------------------|
B|-5---5---5---7---9---9---9---9-4-|-5---5---5---7---9---9---9---4--|
G|------------------------------------------------------------------|
D|------------------------------------------------------------------|
A|------------------------------------------------------------------|
E|------------------------------------------------------------------|

e|------------------------------------------------------------------|
B|-10---9---4---5---4---4---4---4--|-5---5---5---7---9---9---9---9--|
G|------------------------------------------------------------------|
D|------------------------------------------------------------------|
A|------------------------------------------------------------------|
E|------------------------------------------------------------------|

e|--------------------------------------------------------------------|
B|-10---9------10--|-9---9---10---9------10--|-9---9------10------12--|
G|-----------9-----|-------------------9-----|----------9------11-----|
D|---------7-------|-----------------7-------|--------7------9--------|
A|--------------------------------------------------------------------|
E|--------------------------------------------------------------------|

[Instrumental]

e|----------------------------------------------------------|
B|-5-5-5-5-5-5-5-5-5-5-5-5-7-7-7-7-9-9-9-9-9-9-9-9-9-9-9-9--|
G|----------------------------------------------------------|
D|----------------------------------------------------------|
A|----------------------------------------------------------|
E|----------------------------------------------------------|

e|-12-12-11-11--------------------------------------|
B|-------------14-14-14-14-14-14-14-14-14-14-14-14--|
G|--------------------------------------------------|
D|--------------------------------------------------|
A|--------------------------------------------------|
E|--------------------------------------------------|

e|-11-11-11-11-12-12-12-12-12-12-12-12-12-12-12-12--|
B|--------------------------------------------------|
G|--------------------------------------------------|
D|--------------------------------------------------|
A|--------------------------------------------------|
E|--------------------------------------------------|

e|-17-17-16-16--------------------------------------|
B|-------------17-17-17-17-17-17-17-17-17-17-17-17--|
G|--------------------------------------------------|
D|--------------------------------------------------|
A|--------------------------------------------------|
E|--------------------------------------------------|

e|-14-14-16-16-16-16-16-16-16-16-16-16-16-16--------------|
B|-------------------------------------------16-16-16-16--|
G|--------------------------------------------------------|
D|--------------------------------------------------------|
A|--------------------------------------------------------|
E|--------------------------------------------------------|

e|-----------------------------------------------------|
B|-14-14-14-14-14-14-14-14-14-14-14-14-16-16-16-16-17--|
G|-----------------------------------------------------|
D|-----------------------------------------------------|
A|-----------------------------------------------------|
E|-----------------------------------------------------|


[Bridge]

e|-----------------------------------------------|
B|-12-12-12-12-10-10-10-10-9-9-9-9---------------|
G|----------------------------------11-11-11-11--|
D|-----------------------------------------------|x2
A|-----------------------------------------------|
E|-----------------------------------------------|

e|-------------------------------------------------------|
B|-12-12-12-12-10-10-10-10-9-9-9-9--------------9-9-9-9--|
G|----------------------------------11-11-11-11----------|
D|-------------------------------------------------------|
A|-------------------------------------------------------|
E|-------------------------------------------------------|

e|----------------------------------|
B|-9-9-9-9-9-9-9-9------------------|
G|-----------------9-9-9-9-8-8-8-8--|
D|----------------------------------|
A|----------------------------------|
E|----------------------------------|

e|-----------------------------------------------|
B|-12-12-12-12-10-10-10-10-9-9-9-9---------------|
G|----------------------------------11-11-11-11--|
D|-----------------------------------------------|x2
A|-----------------------------------------------|
E|-----------------------------------------------|

e|----------------------12-12-12-12-14-14-14-14--|
B|-12-12-12-12-10-10-10--------------------------|
G|-----------------------------------------------|
D|-----------------------------------------------|
A|-----------------------------------------------|
E|-----------------------------------------------|

e|-16-16-16-16-16-16-16-16-16-16-16-16--------------------|
B|-------------------------------------17-17-17-17-16-16--|
G|--------------------------------------------------------|
D|--------------------------------------------------------|
A|--------------------------------------------------------|
E|--------------------------------------------------------|

e|-------19-19-19-19-17-17-17-17-16-16-16-16--------------|
B|-16-16-------------------------------------19-19-19-19--|
G|--------------------------------------------------------|
D|--------------------------------------------------------|
A|--------------------------------------------------------|
E|--------------------------------------------------------|

e|-19-19-19-19-17-17-17-17-16-16-16-16--------------|
B|-------------------------------------19-19-19-19--|
G|--------------------------------------------------|
D|--------------------------------------------------|
A|--------------------------------------------------|
E|--------------------------------------------------|

e|-19-19-19-19-17-17-17-17-12-12-12-12-11-11-11-11--|
B|--------------------------------------------------|
G|--------------------------------------------------|
D|--------------------------------------------------|
A|--------------------------------------------------|
E|--------------------------------------------------|

e|-------------------------------------11-11-11-11--|
B|-14-14-14-14-14-14-14-14-14-14-14-14--------------|
G|--------------------------------------------------|
D|--------------------------------------------------|
A|--------------------------------------------------|
E|--------------------------------------------------|

e|-12-12-12-12-10-10-10-10-9-9-9-9--------------|
B|---------------------------------11-11-11-11--|
G|----------------------------------------------|
D|----------------------------------------------|x2
A|----------------------------------------------|
E|----------------------------------------------|

e|-------------------------------------------------------|
B|-12-12-12-12-10-10-10-10-9-9-9-9--------------9-9-9-9--|
G|----------------------------------11-11-11-11----------|
D|-------------------------------------------------------|
A|-------------------------------------------------------|
E|-------------------------------------------------------|

e|----------------------------------|
B|-9-9-9-9-9-9-9-9------------------|
G|-----------------9-9-9-9-8-8-8-8--|
D|----------------------------------|
A|----------------------------------|
E|----------------------------------|

e|-12-12-12-12-10-10-10-10-9-9-9-9--------------|
B|---------------------------------11-11-11-11--|
G|----------------------------------------------|
D|----------------------------------------------|x2
A|----------------------------------------------|
E|----------------------------------------------|

e|-------------------------------------------------------|
B|-12-12-12-12-10-10-10-10-9-9-9-9--------------9-9-9-9--|
G|----------------------------------11-11-11-11----------|
D|-------------------------------------------------------|
A|-------------------------------------------------------|
E|-------------------------------------------------------|

e|----------------------------------|
B|-9-9-9-9-9-9-9-9------------------|
G|-----------------9-9-9-9-8-8-8-8--|
D|----------------------------------|
A|----------------------------------|
E|----------------------------------|

            
            
Suggest correction
Creating personal tab
Creating personal tab
You can edit any tab online and save it as your Personal.

You can edit, replace or remove any tab part or add personal notes – all changes will be seen only by you.

Personal tabs can be accessed anytime from any device, even offline.
Learn more »
Give kudos to tab author, rate the tab!
1 2 3 4 5
comments
print report bad tab
guest
You may want to rate the tab now too:
select rating
Wanna post a correction for this tab? Suggest correction