Oops, an error
Loading. Please wait.

And I Tried tab

16 views 1 this week
no commentswrite comment
1 2 3 4 5
3 more votes to show rating
add to favorites
×
Save as Personal and add changes to this tab that will be seen only by you. Learn more ›
×
You can save this tab as Personal to edit and correct it or add notes. All changes will be seen only by you. Learn more »
launch autoscroll
font size
0
reset
how to read this tab
guitar tuner
edit
Autoscroll
slow
fast
+/-
esc
set tempo
stop
Author
[intro]                           G#m
e|---------------------------------------------------------------------------|
B|-----------------4---------------------------------------------------------|
G|---------4---6-----6-4-----------------------------------------------------|
D|--6--4h6-----------------6-------------------------------------------------| 4x
A|---------------------------------------------------------------------------|
E|---------------------------------------------------------------------------|


[Verse]

e|---------------------------------------------------------------------------|
B|---------------------------------------------------------------------------|
G|----------------4-----------------6-4--------------------------------------|
D|--6-6-6-4-6-6-6---6-6-6-6-6-6-6-4------------------------------------------| 4x
A|---------------------------------------------------------------------------|
E|---------------------------------------------------------------------------|

G#m           B
Have I tried enough
        G#m                     B
Clearly not I still find myself thinking about those nights
         G#m                B                  G#m   
Oh those nights back in the fall we were together
                               B
But we weren't really there at all

e|---------------------------------------------------------------------------|
B|---------------------------------------------------------------------------|
G|---------------------------------------------------------------------------|
D|--6-6-6-6-6-6-6-6-6-6-6-6-6-6-6-6-6-6-6------------------------------------| 1x
A|---------------------------------------------------------------------------| 
E|---------------------------------------------------------------------------|


[Chorus]
                              G#m
e|---------------------------------------------------------------------------|
B|-----------------4---------------------------------------------------------|
G|---------4---6-----6-4-----------------------------------------------------|
D|--6--4h6-----------------6-------------------------------------------------| 4x
A|---------------------------------------------------------------------------|
E|---------------------------------------------------------------------------|

And I tried to forget
And I tried
And I tried to forget
And I tried


[Verse]

e|---------------------------------------------------------------------------|
B|---------------------------------------------------------------------------|
G|----------------4-----------------6-4--------------------------------------|
D|--6-6-6-4-6-6-6---6-6-6-6-6-6-6-4------------------------------------------| 4x
A|---------------------------------------------------------------------------|
E|---------------------------------------------------------------------------|

G#m                       B        
Back when every night was cold I needed
G#m                             B              G#m
Someone all the time to keep me warm but now I know
                    B                   G#m
What I needed all along where days like these
                       B
Outside basking in the sun

e|---------------------------------------------------------------------------|
B|---------------------------------------------------------------------------|
G|---------------------------------------------------------------------------|
D|--6-6-6-6-6-6-6-6-6-6-6-6-6-6-6-6-6-6-6------------------------------------| 1x
A|---------------------------------------------------------------------------| 
E|---------------------------------------------------------------------------|


[Chorus]
                               G#m
e|---------------------------------------------------------------------------|
B|-----------------4---------------------------------------------------------|
G|---------4---6-----6-4-----------------------------------------------------|
D|--6--4h6-----------------6-------------------------------------------------| 4x
A|---------------------------------------------------------------------------|
E|---------------------------------------------------------------------------|

And I tried to get you out
And I tried
And I tried to get you out
And I tried


[Bridge]

    G#m                                       B
e|---------------------------------------------------------------------------|
B|--11-11-11-11-11-11-9-----------------------11-9-11-12-11-9----------------|
G|----------------------11-8----8-11-8------------------------11-8-----------|
D|---------------------------11--------11-9----------------------------------|
A|---------------------------------------------------------------------------|
E|---------------------------------------------------------------------------|
    G#m                                           B
e|---------------------------------------------------------------------------|
B|--11-11-11-11-11-11-9---------------------------11-9-11-12-9-12-9----------|
G|----------------------11-8----8-11-8----8-11----------------------11-------|
D|---------------------------11--------11------------------------------------|
A|---------------------------------------------------------------------------|
E|---------------------------------------------------------------------------|


[Outro]
                               G#m
e|---------------------------------------------------------------------------|
B|-----------------4---------------------------------------------------------|
G|---------4---6-----6-4-----------------------------------------------------|
D|--6--4h6-----------------6-------------------------------------------------| 4x
A|---------------------------------------------------------------------------|
E|---------------------------------------------------------------------------|

And I tried to get you out
And I tried
And I tried to get you out
And I tried



************************************

| h  Hammer-on

************************************
Suggest correction
Creating personal tab
Creating personal tab
You can edit any tab online and save it as your Personal.

You can edit, replace or remove any tab part or add personal notes – all changes will be seen only by you.

Personal tabs can be accessed anytime from any device, even offline.
Learn more »
Give kudos to tab author, rate the tab!
1 2 3 4 5
comments
print report bad tab
guest
You may want to rate the tab now too:
select rating
Wanna post a correction for this tab? Suggest correction