Oops, an error
Loading. Please wait.

Ride tab

37 views 1 this week
no commentswrite comment
1 2 3 4 5
3 more votes to show rating
add to favorites
×
Save as Personal and add changes to this tab that will be seen only by you. Learn more ›
×
You can save this tab as Personal to edit and correct it or add notes. All changes will be seen only by you. Learn more »
launch autoscroll
font size
0
reset
how to read this tab
guitar tuner
edit
Autoscroll
slow
fast
+/-
esc
set tempo
stop
Capo on II

[Intro]

D|---------------------------------------------------------------------------|
A|-0-2-------------------------0-2-------------------------------------------|
G|-2---2-----------------------2---2--------------2--------------------------|x2
D|-0-----4-0-2-2p0-2-4-2-0-----0-----4-0--2p0-2-4---4-2-4--------------------|
A|-0-------0-------------------0-------0-------------------------------------|
D|---------------------------------------------------------------------------|


[Verse/Chorus]

D|---------------------------------------------------------------------------|
A|----0-0-0-0---0-0-0-0-----0-0-0-0-----0-0-0-0------------------------------|
G|----2-2-2-2---2-2-2-2-----2-2-2-2-----2-2-2-2------------------------------|x14
D|----4-4-4-4---4-4-4-4-----0-0-0-0-----0-0-0-0------------------------------|
A|----0-0-0-0---0-0-0-0-0h2-2-2-2-2-0h2-2-2-2-2------------------------------|
D|--0---------0--------------------------------------------------------------|


[Outro]

D|---------------------------------------------------------------------------|
A|-0-2-------------------------0-2-------------------------------------------|
G|-2---2-----------------------2---2--------------2--------------------------|x2
D|-0-----4-0-2-2p0-2-4-2-0-----0-----4-0--2p0-2-4---4-2-4--------------------|
A|-0-------0-------------------0-------0-------------------------------------| 
D|---------------------------------------------------------------------------|


[Lyrics]

There's a beating heart in the room upstairs
And I'm walking up so quiet nobody hears
With your car so out on the street caught up on air 
No one's here for staying they're just passing by

And I'll ride, all the way
And i'll ride
All the way, all the way

Amd these wounds are deep not one's you can just mend
Because circulation has never been my friend
So I wear my sleeve's long to cover up the mess
They'll do their job and I'll just do my best

And I'll ride, all the way
And i'll ride
All the way, all the way


***********************************
| h   Hummer-on
| p   Pull-off
***********************************

            
            
Suggest correction
Creating personal tab
Creating personal tab
You can edit any tab online and save it as your Personal.

You can edit, replace or remove any tab part or add personal notes – all changes will be seen only by you.

Personal tabs can be accessed anytime from any device, even offline.
Learn more »
Give kudos to tab author, rate the tab!
1 2 3 4 5
comments
print report bad tab
guest
You may want to rate the tab now too:
select rating
Wanna post a correction for this tab? Suggest correction