Oops, an error
Loading. Please wait.

Can Utility And The Coastliners bass

version 1
version 1

Whole song

Interactive

by Genesis
163 views 3 this week
1 commentread comment
1 2 3 4 5
2 more votes to show rating
add to favorites
×
Save as Personal and add changes to this tab that will be seen only by you. Learn more ›
×
You can save this tab as Personal to edit and correct it or add notes. All changes will be seen only by you. Learn more »
launch autoscroll
font size
0
reset
guitar tuner
edit
Autoscroll
slow
fast
+/-
esc
set tempo
stop
Author
Difficulty
Artist : Genesis
Album : Foxtrot
Song : Can Utility and The Coast Liners


  [1:07] "Now cold winds blow..."
  4/4 Use a pedal sound. The D is not an octave lower in the song. You can drop the E or use an octaver.
G|----------------|----------------|----------------|----------------|----------------|----------------|
D|----------------|----------------|----------------|----------------|----------------|----------------|
A|5---------------|----------------|(5)-------------|----------------|----------------|3-------5---3---|
E|----------------|----------------|----------------|----------------|1-------3-------|----------------|
  1 + 2 + 3 + 4 +  1 + 2 + 3 + 4 +  1 + 2 + 3 + 4 +  1 + 2 + 3 + 4 +  1 + 2 + 3 + 4 +  1 + 2 + 3 + 4 +  
  2/4      4/4
G|--------|----------------|----------------|----------------|----------------|----------------|
D|--------|----------------|----------------|----------------|----------------|----------------|
A|5---3---|--5-------------|5---------------|--5-------------|5---------------|r---------------|
E|--------|----------------|----------------|----------------|----------------|----------------|
  1 + 2 +  1 + 2 + 3 + 4 +  1 + 2 + 3 + 4 +  1 + 2 + 3 + 4 +  1 + 2 + 3 + 4 +  1 + 2 + 3 + 4 + 



 [2:11](progressive part)
  4/4
G|----------------|         I recommend improvising a bit,     G|--------------------------------|
D|----------------|         for example :                      D|--------------------------------|
A|5---------------| x23                                        A|5-----------x-5-------0-3-0-3r--|
E|----------------|                                            E|--------------------------------|
  1 + 2 + 3 + 4 +                                                1   +   2   +   3   +   4   +   



 [3:23] "WHERE THEY FEEEEEEEELL !"
G|----------------|----------------|----------------|----------------|          |----------------|
D|----------------|----------------|----------------|----------------|          |----------------|
A|5---------------|----------------|3---------------|----------------| x2 then  |5---------------|
E|----------------|3---------------|----------------|5---------------|          |----------------|
  1 + 2 + 3 + 4 +  1 + 2 + 3 + 4 +  1 + 2 + 3 + 4 +  1 + 2 + 3 + 4 +             1 + 2 + 3 + 4 + 



[3:59]
 4/4 
G|11(9)-----------|                                       G|-------------------------11-9--11-9--------------|
D|----------------| Play the the F# very fast,            D|-------------------------------------11-9--------|
A|----------------| alternating sometimes with            A|-------------------------------------------12----|
E|----------------| the E during 4 bars and finish with   E|----------------------------------------------0--|
  1 + 2 + 3 + 4 +                                            1     +     2     +     3     +     4     +      
                                           
 9/8 No more pedal sound               4/4
G|------------------------------------|--------------------------------|--------------------------------|
D|----------4---------------4---------|----------4---------------4-----|----------4---------------4-----|
A|------------------------------------|--------------------------------|--------------------------------|
E|2r----0-2-----0-2r----0-2-----0-2-0-|2r----0-2-----0-2r----0-2-----0-|2r----0-2-----0-2r----0-2-----0-|
  1   +   2   +   3   +   4   +   +    1   +   2   +   3   +   4   +    1   +   2   +   3   +   4   +   
                                                                    9/8
G|--------------------------------|--------------------------------|------------------------------------|
D|----------4---------------4-----|----------4---------------4-----|------------------------------------|
A|--------------------------------|--------------------------------|2---4-----------4---2-----------2h4-|
E|2r----0-2-----0-2r----0-2-----0-|2r----0-2-----0-2r----0-2-----0-|------------------------------------|
  1   +   2   +   3   +   4   +    1   +   2   +   3   +   4   +    1   +   2   +   3   +   4   +   +    
  4/4
G|--------------------------------|--------------------------------|---------------------------------|
D|----------4---------------4-----|-----------4--------------------|---------------------------------|
A|--------------------------------|--------------------------------|4r--------------4----------------|
E|2r----0-2-----0-2r----0-2-----0-|2r----0-2-----0-2r----0-2-0r----|--------4r-----------------------|
  1   +   2   +   3   +   4   +    1   +   2   +   3   +   4   +    1   +   2   +   3   +   4   +    
  7/8                          4/4
G|----------------------------|--------------------------------|--------------------------------|
D|----------------------------|7---------------2---------------|----------4---------------4-----|
A|--------4---6r------7-------|----5-----------------4---------|--------------------------------|
E|4---7-----------------------|------------------------------0-|2r----0-2-----0-2r----0-2-------|
  1   +   2   +   3   +   4    1   +   2   +   3   +   4   +    1   +   2   +   3   +   4   +    

G|--------------------------------|--------------------------------|----------------------5\--------|
D|----------------2---------------|----------4---------------4-----|--------------------------------|
A|----5-----------------4---------|--------------------------------|--------------------------------|
E|5-----------------------------0-|2r----0-2-----0-2r----0-2-------|0---5-----------7-------------4-|
  1   +   2   +   3   +   4   +    1   +   2   +   3   +   4   +    1   +   2   +   3   +   4   +    

G|--------------------------------|----------------------8\--------|--------------------------------|
D|--------------------------------|--------------------------------|------------------6-------------|
A|4r------4r------4r------4r------|----7-----------9---------------|--------------------------------|
E|------4-------4-------4---------|7-----------------------------2-|4r----2-4r----2-4-----2-4r------|
  1   +   2   +   3   +   4   +    1   +   2   +   3   +   4   +    1   +   2   +   3   +   4   +    
                                  __________________________________ x7
G|----------12--9-10------9-------|----------12--9-10------9-------|    
D|------------------------------10|------------------------------10|
A|--------------------------------|10------------------------------|
E|8-------------------------------|--------------------------------|
  1   +   2   +   3   +   4   +    1   +   2   +   3   +   4   +   
 


[Outro]
 Here I stopped with the measure decomposition because it wasn't helping at all
G|------------------------5r--7r--9r------------|---12-------------------------------12r-14r---9h10-|
D|--------------------5h7----------------5------|------14-15-14------------------10r----------------|
A|----------------5h7------------------7--------|---------------15r----------10r--------------------|
E|8---------------------------------------------|------------------------8r-------------------------|

G|----------------------------------------------|17-17-17-17-17-------------------------------------|
D|-------------------------3--3-5--5-6--6-8--10-|---------------17r-----10-10-10-10-10--------------|
A|----------3--3-5--5-6--6----------------------|--------------------------------------8r-----------|
E|4--4-6--6-------------------------------------|---------------------------------------------------|

G|------10-9------------13r---------------------|---------------3--3--------------------------------|
D|-x-10-----10------13---------------------3--3-|5--5-5--5-6--6-------------3-5-6-------3-5---------|
A|--------------x-11--------3--3-5--5-6--6------|---------------------3-5-6-------3-5-6-----5-3-----|
E|----------------------------------------------|---------------------------------------------------|

G|---------------------------------||
D|---------2-----------------------||
A|-----------3-3r------------------||
E|---------------------------------||

Have fun !


************************************

| x   Dead note
| (n) Ghost note
| h   Hammer-on
| r   Release
| \   Slide down

************************************

            
            
Suggest correction
Creating personal tab
Creating personal tab
You can edit any tab online and save it as your Personal.

You can edit, replace or remove any tab part or add personal notes – all changes will be seen only by you.

Personal tabs can be accessed anytime from any device, even offline.
Learn more »
Give kudos to tab author, rate the tab!
1 2 3 4 5
comments
print report bad tab
1 comment total.
0 reply
sdjustinr 314 Mar 13, 2017 12:00 AM

Great job!

guest
You may want to rate the tab now too:
select rating
Wanna post a correction for this tab? Suggest correction