Oops, an error
Loading. Please wait.

Firth Of Fifth tab

version 2
version 2

Whole song

  • Troubleclef's solo guitar arrangement of the whole... Show more

Interactive

by Genesis
502 views 15 this week
no commentswrite comment
1 2 3 4 5
2 more votes to show rating
add to favorites
×
Save as Personal and add changes to this tab that will be seen only by you. Learn more ›
×
You can save this tab as Personal to edit and correct it or add notes. All changes will be seen only by you. Learn more »
launch autoscroll
font size
0
reset
how to read this tab
guitar tuner
backing track
0:00
0:00
edit
Autoscroll
slow
fast
+/-
esc
set tempo
stop
Author
Difficulty
About this tab version
Troubleclef's solo guitar arrangement of the whole Firth of Fifth song by Genesis as heard on Youtube. Hackett's guitar solo on this arrangement is replaced by backing chords for it. Was this info helpful? Yes No
Firth of Fifth. Genesis.
Arrangement for guitar by Tony R. Clef (troubleclef)
Uploaded to Youtube on April 7, 2007. 
https://www.youtube.com/watch?v=hGiFV6Ac2vc


[VERSE]

   Sweep across strings with i or m on the first chord
                                      ¢II--¬                                 CII------¬

E|--2------------------------------0---2---------------------------------------------------0-------|
B|---4---------------2----------4-------------------------4----------------0-----3p2-------0-------|
G|----4-------4------4-------4---------4--------4---------4-------------0--------3---------2-------|
D|-----4---4-----4---4----4------------2-----4---------4------2/4--4-------------2---------4-------|
A|------2------------0---------------------------------------------2------------------4/6--2-------|
E|-------------------------------------4------------2--------------3----------2--------------------|


                            
E|--------------------------0----------------------------------------------------------------------|
B|-----0---4----------------0-------------------------0---0----0----------0h1-0-----------------0--|
G|-----2---2----------------1--/----------2/-4--2---------0----------------------------0-----2-----|
D|--4------4----------------2--/--------2--/-4-----4------4--4-------------------------0--0--------|
A|---------2---2h4p2--------2--/----------------2---------5---------------0h2-0-----0--2-----------|
E|--------------------4--2--0-----+12+----------------------------0h2--3---------3-----3-----------|



   ¢II                                                                      ¢II----¬

E|--2--0--0---------------------------------------------------------------0--2---------------------|
B|-----------3---2-----2--------------------------4------------2h4--------------------------4------|
G|--4------------------0-----0--------------------------4------4-------4-----4-----4--------4------|
D|--2-----2---------2-----2--------------------------4-----4---4----4--------2--4--------4---------|
A|---------------1--------------1h2--4--4--2--1---2------------0-----------------------------------|
E|--4------------------------------------------------------------------------4--------2------------|



E|----------------------------------0------------------------0------0------------------------------|
B|-------------0-----3p2------------0-----0--4---------------0-------------------------0---0----0--|
G|----------------0--3--------------2-----2--2---------------1--/-----------2/-4--2--------0-------|
D|--2/4--4--4--------2---2----------4--4-----4---------------2--/---------2--/-4-----4-----4--4----|
A|-------2------------------4--4/6--2--------2--2h4-2--------2--/-----------------2--------5-------|
E|-------3-----------2---------------------------------4--2--0-----(12)----------------------------|


                                    ¢II

E|-----------------------------------2--0--0--------------------------|
B|----------0h1-0-----------------0-----------3--2----------2---------|
G|-----------------------0-----2-----4-----------0-------0------------|
D|-----------------------0--0--------2-----2-----2----2---------------|
A|----------0h2-0-----0--2-----------------------1--------------1-----|
E|--0p2--3---------3-----3-----------4--------------------------------|


[VERSE 2]

                              CVI-----¬                 CVI-----------------------------------¬

E|--0--7------4-------4-----5--7--------------------4--5--6--------------------------6-----------|
B|-----5------5----7-----------7--------9--7--------------------6-----7--------6--7--6-----6-----|
G|-----4-----------6-----------6-----6-----6--------------------6-----8-----8--------7-----7-----|
D|---------6-------7-----7--------6--------7-----7-----------8-----8--8--8-----------6--6-----6--|
A|-----------------------------------------7--7--------------------------------------8-----------|
E|-----0-----------0-----------0-----------0--------------6-----------6--------------------------|


   CVIII------------¬                  CIII----------------------¬ CVIII----------¬

E|-----------------8---10-----------------------5p3--------6------------8--------------0--------|
B|------11--8--11--10--8---------------------3-------------3------------8--------------0--------|
G|--8---8------8---8---0------0-----0-----4-------------5--3------------8-----------5--6--------|
D|--8---8------10--10--9---9-----9-------------------------3--5--5--10--10-------------6--6--6--|
A|--10--10-----8---8---10----------------------------------3------------8---10--10-----7--------|
E|--11---------------------------------3--------------------------------8--------------0--------|



E|-----2--------------------------------------------------0--------0--------0--------0-------------------|
B|--2--2----------------0-------0-------0--------0------0--------0--------0--------2---------------------|
G|-----3--------------6-------6-------6--------8------1--------1--------1--------1----------------4------|
D|-----4--4--4------6-------6-------6--------6------1--------1-------1--------1----------4-----4-----4---|
A|-----2----------7-------7------7--------7-------------------------------------------------6------------|
E|-----2----------0----------------------------------------------------------------------7---------------|

                   REPEAT CHORD 12TIMES

E|---------------------------------------------------------0--2--------------------------------------|
B|------------0----2---------------------------2--------4--------------4-------------------0--3--2---|
G|-----------------1--------------------4------4-----4--------4-----4--------4----------0-----0--0---|
D|-----4-----------3-----------------4-----4---4--4-----------2--4--------4-----2/4--4--------2--2---|
A|--6-----------------------------2------------0-------------------------------------2--------0------|
E|--------7--------2------------------------------------------4--------2-------------3---------------|



[INTERLUDE]

                    CIV--¬                  CII--¬

E|--19--16--------------4---19--16--------------2----19--15----------0--3---19--15----------------|
B|--17------17--17---5------17------17--17---3-------17------17--17---------17------17--17--------|
G|--16------16--16----------16------16--16-----------0-------0---0------0---0-------0---0---------|
D|--0-------------------6---0-------------------4--------------------2----------------------------|
A|-------------------7-----------------------5-------0----------------------0---------------------|
E|------------------------------------------------------------------------------------------------|



E|-----2--0------------------------------------9/--11-----------------12/--14---------------------|
B|--3--------3--1--0--------------------------10/--12-----------------14/--16---------------------|
G|------------------------------------------------------------------------------------------------|
D|--0--4--2--0------------------------------------------------------------------------------------|
A|--------------3--2-----2/--6--9--------------------------------(7)------------------------------|
E|--------------------2------------0--7/--(12)---------+12+--(7)----------------------------------|


[FLUTE THEME]


E|--3-----------3---2h3--2-----------------------------0-------------------------------------0------|
B|--------------0--------------0-----1-----------------0---0--0h1-----1-----1----1--------0-----4---|
G|-----------0-----------------------2-----0--------0--------------2-----0-------------0--------0---|
D|--------2-----------------------2-----4--------2-----------------------------4----2-----2---------|
A|-----2-----------------0-----0--------------2---------------0------------------------2------------|
E|--0-----------------------0--------------0----------------------------------------0---------------|



E|---------------------------------------0----------------------------------------0-----------------|
B|----------------------------------------------------------------0--1--3h5--7h8--------------------|
G|--4/2--4----------------------------2---------------------0--2-------------0----------------------|
D|------------------4--0h2--4--2---2-----------0h2--1h2--4-----1-------------------------2----------|
A|-------2-----2h5-------------0h3----------3-------2----------2----------------------2-------------|
E|----------2----------------------------------------------------------------0----------------------|




E|--------------------------0----------------------------0----------------------------0-----------0--|
B|--0--0h1---1-----1------0---4-0--0h1---1---1---1-----0---4-0--0h1---1---1---1-----0---4-0-----0----|
G|---------2---0--------0--------------2---0---------0--------------2---0---------0-----------0------|
D|---------------4----2------------------------4---2------------------------4---2-----------2--------|
A|-----0---------------------------0----------------------------0------------------------------------|
E|--------------------0----------------------------0----------------------------0-----------0--------|


[PIANO SECTION]

E|---------------------------------------------------------------------------------------------------|
B|--4--1--4--1--4--1--4------3--4p3-----3--4h6--4--3--4p3-----3--4h6--4--3--4-----4-----4-----4------|
G|--2-----2-----2-----2---5----------5---------------------5-------------------5-----3-----2---------|
D|--------------------------------------------------------------------------3------------------------|
A|------------------------------3----------3----------3----------3-----------------------------------|
E|--1-----1-----1-----1------------------------------------------------------------------------------|




E|--------------------------------------------------------------------------3-----3-----3-----3------|
B|-----4-----4-----4------4-----4p3-----3--4h6--4--3--4p3-----3--4h6--4--3--------4-----4-----4------|
G|--0-----2-----3------5-----5-------5---------------------5-------------------5-----3-----2---------|
D|---------------------3-----3----------------------------------------------3------------------------|
A|------------------------------3----------3----------3----------3-----------------------------------|
E|---------------------------------------------------------------------------------------------------|




E|-----3-----3-----3------3-------------------------------------------------5-----5-----5------5-----|
B|-----4-----4-----4------4-----4p3-----3--4h6--4--3--4p3-----3--4h6--4--3--------4-----4------4-----|
G|--0-----2-----3------5-----5-------5---------------------5-------------------5-----3------2--------|
D|---------------------3-----3----------------------------------------------3------------------------|
A|------------------------------3----------3----------3----------3-----------------------------------|
E|---------------------------------------------------------------------------------------------------|




E|-----5-----5-----5------5-------------------------------------------------------------------------|
B|-----4-----4-----4------4-----4h3-----3--4h6--4--3--4p3-----3-------------------------------------|
G|--0-----2-----3------5-----5-------5---------------------5-----5p3--5p3--2h3--2--0--2p0-----------|
D|---------------------3-----3-------------------------------------------------------------3h5--3---|
A|------------------------------3----------3----------3---------------------------------------------|
E|--------------------------------------------------------------------------------------------------|




E|-------------------------------------------|
B|-------------------------------------------|
G|-------------------------------------------|
D|--1--3p1--0h1--0---------------------------|
A|------------------3--1h3--4p3--1h3--4/-----|
E|-------------------------------------------|


[PIANO INTRO/SYNTH PART]

Breathe in...

   CVI-----------------------------¬         CVIII--¬         CVIII-----------------------¬

E|--6-----------6------------------------------------------------------------8--------------|
B|-----------6-----------6--8--------6--------8--------6---------------8----------------10--|
G|--------7-----------7-----------8--------7--------8--------7--9---------9---------10------|
D|-----8-----------8-----------8--------8--------8--------8--------10-----------10----------|
A|--------------------------6--------5---------------------------------------8--------------|
E|--6-----------------------------------------9--------8--------8---------------------------|




   CX------------¬ CVI-----------------------------¬ CVIII-¬

E|--10--------------9--------8--------6--------6-----8------|
B|--------------11--------6--------6--------------7------9--|
G|----------10---------6--------6-----------8--8-----8------|
D|------12-------------------------------8-----8-----10-----|  REPEAT
A|------------------------------------6---------------------|
E|--11--------------9--------8------------------------------|




   CVI------------------¬  CVIII-------------------------------------¬ CVI------------------------

E|--6---------------------------------------------------------------------------------------------|
B|-----------6--8h9--8--6--8-------------------8---------10-----11-----8--------6--------8--------|
G|--------7-----------------------8--10-----8---------8----------------------8--------8--------8--|
D|-----8-----------------------8---------8---------8---------8------8-----8--------8--------8-----|
A|-------------------------11--------11--------11--------11-----11-----6--------6--------6--------|
E|--6----------------------8---------8---------8---------8------8------6--------6--------6--------|




   ----------¬ CVIII-------------------------------------¬ CVI-----------------------------------¬

E|--------6----------------------------------------------------------------------------------6-----|
B|--6-----------8-------------------8---------10-----11-----8--------6--------8--------6-----------|
G|---------------------8--10-----8---------8----------------------8--------8--------8--------------|
D|-----8-----8------8---------8---------8---------8------8-----8--------8--------8--------8-----8--|
A|--6-----6-----11--------11--------11--------11-----11-----6--------6--------6--------6-----6-----|
E|--6-----6-----8---------8---------8---------8------8------6--------6--------6--------6-----6-----|




                                               CIV-------------------¬ CVI-------------¬ CVII-------------

E|--4--------3-----------------3-----4-----6----7--------6--------4-----6-----7-----9-----10--------9-----|
B|--------4--------4--6-----4-----0-----0-----0-------5--------5---------------------------------7-------7|
G|-----4--------4--------4-------------------------6--------6--------6-----6-----6-----6------7-------7---|
D|-----------------------------1-----3-----5----------------------------------6-----8---------------------|
A|----------------------------------------------------------------4-----9---------------------------9-----|
E|----------------------------------------------4-----------------------------------------7---------------|


   Double speed last 2 triplets¬                                             CIV-------¬ CVI-------------

E|--7--------9-----10----+12+----2--------0-----------------0--------2--------4-----------6--------------|
B|--------7------7------7--------------0-----------3-----------0--------0--------------------------7-----|
G|-----7-------7------7-------------0--------0--------0-----------1--------1-----4--------------6--------|
D|--0--------------------------------------------------------------------------------6-------8-----------|
A|-------------------------------------0--2-----4--5-----4--2--------1--------------------9--------------|
E|-------------------------------3--------------------------------------------4--------------------------|


   ----------¬                                        CVI-------------------¬

E|-----6-----------------------------------------------6--------------6--------------------------------|
B|--9-----9--7--9--------6--------9--------6-----9--------------7--9-----9--7--9--------6--------9-----|
G|--------------------8--------8--------8--------------------6-----------------------8--------8--------|
D|--9-----8-----9--9--------9--------9--------9-----9-----8--------9-----8-----9--9--------9-----------|
A|-----------------------------------------------------9-----------------------------------------------|
E|-----------------------------------------------------------------------------------------------------|


                     CVI-------------------¬  CII----¬ CI------¬ ¢II----¬ ¢I-----¬ ¢II-¬ ¢I---¬

E|--------------------6--------------6---------2--------1---------2-----2--1-----1--2-----1-----------|
B|--------6-----9--------------7--9-----9--7---------4--------3---4-----4--1-----1--4-----1-----------|
G|-----8--------------------6---------------------4--------3---------3--------2--------3-----2--------|
D|--9--------9-----9-----8--------9-----8-------------------------4--------3--------4-----3-----------|
A|--------------------9---------------------------------1---------------------------------------------|
E|---------------------------------------------4------------------------------------------------------|



   CVI-----------------------------¬         CVIII--¬         CVIII-----------------------¬

E|--6-----------6------------------------------------------------------------8--------------|
B|-----------6-----------6--8--------6--------8--------6---------------8----------------10--|
G|--------7-----------7-----------8--------7--------8--------7--9---------9---------10------|
D|-----8-----------8-----------8--------8--------8--------8--------10-----------10----------|
A|--------------------------6--------5---------------------------------------8--------------|
E|--6-----------------------------------------9--------8--------8---------------------------|



   CX------------¬ CVI-----------------------------¬ CVIII-¬

E|--10--------------9--------8--------6--------6-----8------|
B|--------------11--------6--------6--------------7------9--|
G|----------10---------6--------6-----------8--8-----8------|
D|------12-------------------------------8-----8-----10-----|  
A|------------------------------------6---------------------|
E|--11--------------9--------8------------------------------|



   CVI-----------------------------¬         CVIII--¬          CVI-¬ CV--¬ CVI--------------------¬

E|--6-----------6-----------------------------------------------6-----5--------------------------6--|
B|-----------6-----------6--8--------6--------8--------9-----------8-----7--9--------6--8--9--8-----|
G|--------7-----------7-----------8--------7--------8--------8--------------------7-----------------|
D|-----8-----------8-----------8--------8--------8--------9--------------------8--------------------|
A|--------------------------6--------5--------------------------------------------------------------|
E|--6-----------------------------------------9--------7--------6-----5-----6-----------------------|


   CIX----------------------------------------------------¬

E|----------------------9--11--12-----------------9--11--12/14------------14---------|
B|--12-------9--11--12-----------------9--11--12-------------------------------------|
G|--------9------------------------9------------------------11--------11-------------|
D|-----9----------------------------------------------------12-----------------------|
A|-----------------------------------------------------------------------------------|
E|--9--------------------------11---------------------------0------0-----------------|

Breathe out.

[ELECTRIC GUITAR SOLO]

E|---------------------------------------------------------------------------|
B|--7-------7----------7----------7-------7----------7-----------------------|
G|--7-------7----------7----------7-------7----------7-----------------------|
D|--5-------5----------5-------0--7-------7----------7-----0*---REPEAT X6----|
A|----------7----------7--0h2-------------7----------7-----------------------|
E|--0h7--0-----0h7--0-------------0h7--0-----0h7--0-----0--------------------|




E|--------------------------------0------------------------------------------------------------|
B|--7-------7----------7----------1-------------------------7-------7----------7---------------|
G|--7-------7----------7----------0--------------0h2--------7-------7----------7---------------|
D|--5-------5----------5-------------------0--2----------0--5-------5----------5-------0-------|
A|----------7----------7----------0--2--3-------------0-------------7----------7--0h2----------|
E|--0h7--0-----0h7--0-----0h2--3----------------------------0h7--0-----0h7--0------------------|



E|---------------------------------------------------------------------------------------------|
B|----------------------1------7-------7----------7------------0---------0---------------------|
G|-----------------0h2-----0*--7-------7----------7--------------------------------------------|
D|-----------0--2--------------5-------5----------5------------7---------7-----0---------------|
A|--0--2--3-------------0--------------7----------7---------5-------5--------------------------|
E|-----------------------------0h7--0-----0h7--0-----0---7--------7---7-----7------------------|


                              Strumming                                 
                              CVI----¬     Sweep up                         Sweep up

E|--0----------------------------------------0-------0------------------------0------0---------|
B|--1-------------------1-----------------0---0------0--0--------0-------------1-----1---------|
G|--0--------------0h2-----8---8-8-8-8-0--0----0-----0-----0--------0-----------4----4---------|
D|-----------0--2--------------7-7-7-7-0--4-----4----4--------4--------4---------2---2---------|
A|--0--2--3-------------0------9-9-9-9-0--2------2---2----------------------0-----0--0---------|
E|-------------------------7---7-7-7-7-0--0-------0--0-----------------------------------------|


                        Sweep down and up                  Sweep

E|---------------------------0------0-----------------------0------0----------------------------|
B|--1--------1--------------0-0-----0--0--------0------------1-----1--1--------1----------------|
G|-----4--------4----------0---0----0-----0--------0----------4----4-----4--------4-------------|
D|--------2--------2------4-----4---4--------4--------4--------2---2--------2--------2----------|
A|-----------------------2-------2--2---------------------0-----0--0----------------------------|
E|--------------------0-------------0-----------------------------------------------------------|


       Sweep down and up       Sweep up             Sweep up                 Strum 

E|---------0------0--0-0-0-0-----0------0--0-0-0----0--0------0--0-0-0--------------------------|
B|--------0-0-----0--0-0-0-0--0---0-----0--0-0-0-0--1---1-----1--1-1-1-0------------------------|
G|-------0---0----0--0-0-0-0--x----x----x--x-x-x-0--0----0----0--0-0-0-0--8---8-8-8-8-8---------|
D|------4-----4---4--4-4-4----7-----7---7--7-7-7-0--2-----2---2--2-2-2-0--7---7-7-7-7-7---------|
A|-----2-------2--2--2-2-2----5------5--5--5-5-5-0--0------0--0--0-0-0-0--9---9-9-9-9-9---------|
E|--0-------------0--0-0-0----7---------7--7-7-7----0---------0-----------7---7-7-7-7-7---------|



E|----------------------------------------------------------------------------------------------|
B|--7------------------7-----------1-------------------1----------------------------------------|
G|--7------------------7-----------0--------------0h2-------------------------------------------|
D|--5------------------5-------0------------0--2----------0----REPEAT---------------------------|
A|----------7----------7--0h2------0--2--3-------------0----------------------------------------|
E|--0h7--0-----0h7--0---------------------------------------------------------------------------|



E|----------------------------------------------------------------------------------------------|
B|--7-------7----------7--------------0-----------0--------1-------------------1----------------|
G|--7-------7----------7-----------------------------------0--------------0h2------6------------|
D|--5-------5----------5-----0--------7-----------7-----0--2--------0--2------------------------|
A|----------7----------7-----------5--------5--------------0--2--3-------------0----------------|
E|--0h7--0-----0h7--0-----0-----7--------7-----7-----7-----------------------------7------------|


   Strumming    Sweep up                         Sweep up
   CVII---¬

E|----------------0-------0------------------------0------0--------|
B|-------------0---0------0--0--------0-------------1-----1--------|
G|--8-8-8-8-0--0----0-----0-----0--------0-----------4----4--------|
D|--7-7-7-7-0--4-----4----4--------4--------4---------2---2--------|
A|--9-9-9-9-0--2------2---2----------------------0-----0--0--------|
E|--7-7-7-7-0--0-------0--0----------------------------------------|


                        Sweep down and up                 Sweep up

E|---------------------------0------0-----------------------0------0----------------------------|
B|--1--------1--------------0-0-----0--0--------0------------1-----1--1--------1----------------|
G|-----4--------4----------0---0----0-----0--------0----------4----4-----4--------4-------------|
D|--------2--------2------4-----4---4--------4--------4--------2---2--------2--------2----------|
A|-----------------------2-------2--2---------------------0-----0--0----------------------------|
E|--------------------0-------------0-----------------------------------------------------------|



      Sweep down&up             Sweep up          Sweep up               CVII---------¬|

E|---------0------0--0-0-0-0-----0------0--0-0-0----0--0------0--0-0-0--------------------------|
B|--------0-0-----0--0-0-0-0--0---0-----0--0-0-0-0--1---1-----1--1-1-1-0------------------------|
G|-------0---0----0--0-0-0-0--x----x----x--x-x-x-0--0----0----0--0-0-0-0--8---8-8-8-8-8---------|
D|------4-----4---4--4-4-4----7-----7---7--7-7-7-0--2-----2---2--2-2-2-0--7---7-7-7-7-7---------|
A|-----2-------2--2--2-2-2----5------5--5--5-5-5-0--0------0--0--0-0-0-0--9---9-9-9-9-9---------|
E|--0-------------0--0-0-0----7---------7--7-7-7----0---------0-----------7---7-7-7-7-7---------|





E|--------------------0--0----0----0----------0-----0----0-----------0-----0--------------------|
B|--0----0------------0--0---0-----0----------0-----0---0------0-----0-----0--------------------|
G|--1---1------1---1-----2--2------2--2----2-----2--1--1----------1-----1-----------------------|
D|------------------------------4-------4-------------------------------------------------------|
A|---------------2------------------------------------------4--2--------------------------------|
E|--0--0---2-4-----------0--------------------------0----------------4--------------------------|




E|--0----0----0------------0------0---0----------0-----0--0----0-----0--------------0-----------|
B|--0---0-----0------------0------0--0-----0-----0-----0--0---0------0-----------0--------------|
G|--2--2------2---2-----2-----2---1-1---------1-----1-----2--2-------2--2-----2-----------------|
D|---------4---------4-----------------------------------------------------4--------------------|
A|-----------------------------------------------2----------------4-----------------------------|
E|--0-----------------------------0-----2--4--------------0-------------------------------------|



E|----------------------------------------------------------------------------------------------|
B|--0--------0-----------0------1--------1-----------1--------1--------0-----------2------------|
G|--1--------1-----------1------0--------0-----------0--------0--------4-----------0-----0------|
D|--0--0--------0-----0-----0---2--2--------2-----2-----------2--------2--------2-----2---------|
A|--------2--------2---------------------------------------------------------1------------------|
E|--0--------------------0------0-----0--------0--------0--3-----3--4-----4---------------------|


[VERSE]

E|---------------------------------------------0--2---------------------|
B|---------------------4------------2h4--------------------4------------|
G|---------------------------4------4-------4-----4-----4--------4------|
D|------------------------4-----4---4----4--------2--4--------4---------|
A|--1--2--4--4--2--1---2------------0-----------------------------------|
E|------------------------------------------------4--------2------------|



E|----------------------------------0------------------------0------0------------------------------|
B|-------------0-----3p2------------0-----0--4---------------0-------------------------0---0----0--|
G|----------0--------3--------------2-----2--2---------------1--/-----------2/-4--2--------0-------|
D|--2/4--4-----------2---2----------4--4-----4---------------2--/---------2--/-4-----4-----4--4----|
A|-------2------------------4--4/6--2--------2--2h4-2--------2--/-----------------2--------5-------|
E|-------3-----------2---------------------------------4--2--0------12+----------------------------|



E|-----------------------------------2--0--0--------------------------|
B|----------0h1-0-----------------0-----------3--2-----2--------------|
G|-----------------------0-----2-----4-----------------0-----0--------|
D|-----------------------0--0--------2-----2--------2-----2-----------|
A|----------0h2-0-----0--2-----------------------1--------------------|
E|--0p2--3---------3-----3-----------4--------------------------------|



E|----------------------------------------------0--2------------------------------------2---0-----|
B|--------------------4------------2---------4--------------4-------------------0--3p2--2---0-----|
G|--------------------------4------4------4--------4-----4--------4----------0-----3----3---2-----|
D|-----------------------4-----4---4---4-----------2--4--------4-----2/4--4--------2----2---4-----|
A|--1h2--4--4--2--1---2------------0--------------------------------------2-------------4---2-----|
E|-------------------------------------------------4--------2-------------3--------2----2---------|



    
E|--16------------------16----------------19-----16-----------------16--------------19------------|
B|---------17--19----17--------17--19------------------17--19----17-------17--19------------------|
G|-----18---------18-------18----------18----18-----16--------16-------16--------16----16---------|
D|------------------------------------------------------------------------------------------REPEAT|
A|--------------------------------------------------------------------------------------------AND-|
E|-------------------------------------------------------------------------------------------FADE-|


**************


| h  hammer on
| p  pull off
| /  slide up
| \  slide down
| +  natural harmonic
| ¢  half capo
| x  muted string



Suggest correction
Creating personal tab
Creating personal tab
You can edit any tab online and save it as your Personal.

You can edit, replace or remove any tab part or add personal notes – all changes will be seen only by you.

Personal tabs can be accessed anytime from any device, even offline.
Learn more »
Give kudos to tab author, rate the tab!
1 2 3 4 5
comments
print report bad tab
guest
You may want to rate the tab now too:
select rating
Wanna post a correction for this tab? Suggest correction