Oops, an error
Loading. Please wait.

Invisible Touch bass

by Genesis
1,034 views 3 this week
no commentswrite comment
1 2 3 4 5
x 3
add to favorites
×
Save as Personal and add changes to this tab that will be seen only by you. Learn more ›
×
You can save this tab as Personal to edit and correct it or add notes. All changes will be seen only by you. Learn more »
launch autoscroll
font size
0
reset
guitar tuner
edit
Autoscroll
slow
fast
+/-
esc
set tempo
stop
Author
Difficulty
-------------------------------------------------------------------------------
                        Invisible Touch - Genesis
-------------------------------------------------------------------------------

Tabbed by: Russell Pagden
E-mail: irradium97@gmail.com

Tuning: Standard

[Intro]

G|----------------------------------------------------------| 2x
D|-------------------------------3--------------------------|
A|----------------------------3h5-5p3----------------3/5--3-|
E|-1-1-1--------1--1------------------1-1-1-----------------|

[Verse]

G|-----7-5----------------------10-|
D|---------78------------5-7-10----|
A|-5----------8--------8-----------|
E|-------------6--5-5--------------|

G|-----7-5---------------------------------121212------|
D|---------78------------------------------------------|
A|-5----------8--------3--5--7910-10-----4/------------|
E|-------------6--5-5----------------------------------|

[Prechorus]

G|----------------------10--------------------------------------|
D|---------------5-7-10---------------7--7----------------------|
A|-----3-5---/8---------------3-5---8--8--8--1-1--------1-1-3-3-|
E|-8\6----------------------6-----------------------------------|

[Chorus]

G|------------------------------------------------------| 2x
D|---------------------------3--------------------------|
A|------------------------3h5-5p3----------------3/5--3-|
E|-1-1-1--------1--1--------------1-1-1-----------------|

[Verse]

G|-----7-5----------------------10-|
D|---------78------------5-7-10----|
A|-5----------8--------8-----------|
E|-------------6--5-5--------------|

G|-----7-5---------------------------------121212------|
D|---------78------------------------------------------|
A|-5----------8--------3--5--7910-10-----4/------------|
E|-------------6--5-5----------------------------------|

[Prechorus]

G|----------------------10--------------------------------------|
D|---------------5-7-10---------------7--7----------------------|
A|-----3-5---/8---------------3-5---8--8--8--1-1--------1-1-3-3-|
E|-8\6----------------------6--------------------------3--------|

[Chorus]

G|------------------------------------------------------| 2x
D|---------------------------3--------------------------|
A|------------------------3h5-5p3----------------3/5--3-|
E|-1-1-1--------1--1--------------1-1-1-----------------|

[Breakdown]

G|------------------------------------------------------------------|
D|------------------------------------------------------------------|
A|-6-6-6-6-6-6-6---46-6-6-6-6-6-6--46-6-6--46-6-6--46-6-6--46-6-6-6-|
E|---------------46--------------46------46------46------46---------|

[Chorus]

G|------------------------------------------------------| 2x
D|---------------------------3--------------------------|
A|------------------------3h5-5p3----------------3/5--3-|
E|-1-1-1--------1--1--------------1-1-1-----------------|

[Verse]

G|-----7-5----------------------10-|
D|---------78------------5-7-10----|
A|-5----------8--------8-----------|
E|-------------6--5-5--------------|

G|-----7-5---------------------------------121212------|
D|---------78------------------------------------------|
A|-5----------8--------3--5--7910-10-----4/------------|
E|-------------6--5-5----------------------------------|

[Prechorus]

G|----------------------10--------------------------------------|
D|---------------5-7-10---------------7--7----------------------|
A|-----3-5---/8---------------3-5---8--8--8--1-1--------1-1-3-3-|
E|-8\6----------------------6--------------------------3--------|

[Chorus]

G|------------------------------------------------------| 2x
D|---------------------------5--------------------------|
A|------------------------5h7-7p5----------------5/7--5-|
E|-3-3-3--------3--3--------------3-3-3-----------------|

[Outro]

G|--------------------------------------------------------| 2x
D|-----------------------------5--------------------------|
A|--------------------------5h7-7p5----------------5/7--5-|
E|-3-3-3--------1-3--3--------------3-3-3-----------------|

G|----------------------------------------------------------| 
D|-----------------------------5----------------------------|
A|--------------------------5h7-7p5----------------5--7-5-5-|
E|-3-3-3--------1-3--3--------------3-3-3-------------------|

G|------------------------------------| 
D|-----------------------------5------|
A|--------------------------5h7-7p5---|
E|-3-3-3--------1-3--3--------------3-|


| /  slide up
| \  slide down
| h  hammer-on
| p  pull-off
| ~  vibrato
| +  harmonic
| x  Mute note
===============================================================================

Extra Notes: So, pretty easy song, the only tricky part is the somewhat awkward
timings. There are lots of staccato notes also, so, listen out for them.

Have fun!

~ Russ


            
            
Suggest correction
Creating personal tab
Creating personal tab
You can edit any tab online and save it as your Personal.

You can edit, replace or remove any tab part or add personal notes – all changes will be seen only by you.

Personal tabs can be accessed anytime from any device, even offline.
Learn more »
Give kudos to tab author, rate the tab!
1 2 3 4 5
comments
print report bad tab
guest
You may want to rate the tab now too:
select rating
Wanna post a correction for this tab? Suggest correction