Oops, an error
Loading. Please wait.

Misunderstanding Bass Tab

version 2
version 2

Whole song

1,089 views 21 this week
no commentswrite comment
1 2 3 4 5
please rate
add to favorites
launch autoscroll
font size
0
reset
guitar tuner
Autoscroll
slow
fast
+/-
esc
set tempo
stop
Help us to improve Ultimate-Guitar.com Take our survey!
×
Author
-----------------------------------------------------------------------------
                         MISUNDERSTANDING - Genesis
-----------------------------------------------------------------------------

Tabbed by: Matt Broback
E-mail: 37hambone@gmail.com

Tuning: E A D G

INTRO                              x2
|------------------|-----------------|
|:0---2---3---/7-5-|----------------:|
|:-----------------|----------------:|
|------------------|-----------------|

|-----------------|----------------|-----------0----|
|0---2---3---/7-5-|--------------5\|---------2----2-|
|-----------------|----------------|3-------3------3|
|-----------------|----------------|----------------


CHORUS 1
|------------------|-----------------|-------------------|
|0--02--23--35/7-5-|:----------------|0--02--23--35/7-5-:|
|------------------|:--------------03|------------------:|
|------------------|-----------------|-------------------|

|------------020-|-----------0----|------------------|
|-----------2---2|---------2----2-|0--02--23--35/7-5-|
|----------------|3-------3------3|------------------|
|----------------|----------------|------------------|

|-----------------|-------------------|------------020-|-----------0----|
|:----------------|0--02--23--35/7-5-:|-----------2---2|---------2------|
|:--------------03|------------------:|----------------|3-------3-----3-|
|-----------------|-------------------|----------------|---------------3|


PRECHORUS 1
|----------------|----------------|----------------|----------------|
|----6~------6~--|----6/8\6----6--|----6~------6~--|----6/8\6----6--|
|--------.-------|.--------.------|.-------.-------|.--------.------|
|4~-4---44--4---4|4--4-----4--4-13|4--4---44--4---4|4--4-----4--4-44|

|----------------|----------------|-----------------|
|----535-----5~\-|----------------|----5~-------535\|
|.---------------|.---------------|.-------.--------|
|3--3---3~--3---3|1--11~---1131431|3--3---33---3----|

|-----------------|----------------|----------------|
|----3~\----------|----5~------5~--|.----.----------|
|.------3p1.------|.-------.-------|0---00---0000024|
|1--1------1--3141|3--3---33--3---3|----------------|


CHORUS 2
|------------------|----------------|------------------|----------------|
|0--02--23--35/7-5-|----------------|0--02--23--35/7-5-|--------5/75-75-|
|------------------|--------------03|------------------|-------7----7--7|
|------------------|----------------|------------------|----------------|

|------------------|------------0---|------------0---|
|0--02--23--35/7-5-|-------------20-|----------2-----|
|------------------|---------------3|--------33----3-|
|------------------|----------------|---------------3|


PRECHORUS 2
|----------------|---------------|----------------|---------------|
|----6~-------6--|----6~------6--|----6~-------6--|----6~---------|
|.--------.------|.--------------|.--------.------|.--------------|
|4--4----44--4-13|4--4----4444-63|4--4----44--4-13|4--4---444446\4|

|----------------|--------------|--------------|
|------------535\|----3~--------|----53555-53--|
|.---.---.-------|.-------------|.-----------5\|
|3--33--33--3----|1--1---1131431|3--3-----3----|

|------------|------------|--------------|
|---333------|---53555-53-|--------------|
|.-----------|.----------5|-----000000024|
|1-1---131431|3-3-----3---|3/555---------|


OUTRO
|------------------|-------------20-|------------------|-------------020-|
|0--02--23--35/7-5-|---------------2|0--02--23--35/7-5-|------------2---2|
|------------------|----------------|------------------|-----------------|
|------------------|----------------|------------------|-----------------|

|------------------|----------------|------------------|----------------|
|0--02--23--35/7-5-|----------------|0--02--23--35/7-5-|----------------|
|------------------|----0---2---3344|------------------|------------0234|
|------------------|---3------------|------------------|-----------3----|

                                    x3
|-------------------|-----------------|
|:0--02--23--35/7-5-|----------------:|
|:------------------|----0---2---3344:|
|-------------------|---3-------------|
Suggest correction
What's this?
You can suggest a correction to this tab. Community and Mods will review your correction and vote to approve or reject it.
comments
We did not receive enough feedback on this tab! Please rate:
print report bad tab
1 2 3 4 5
guest
You may want to rate the tab now too:
select rating
Please do not post tabs as comments. Select "correction" instead!