Oops, an error
Loading. Please wait.

Musical Box Tab

version 1
version 1

Whole song

Interactive

25,122 views 51 this week
2 commentsread comments
1 2 3 4 5
x 9
add to favorites
launch autoscroll
font size
0
reset
how to read this tab
guitar tuner
×
Best way to learn
"Musical Box"
Autoscroll
slow
fast
+/-
esc
set tempo
stop
Author
Difficulty
  follow
intermediate
[Intro]
  F#                   C#sus4     F#                  C#sus4
e|---6--------6--7--6---4---4-----6--7--6-----6--7--6---4---------|
B|---7--------7--7--7---7---7-----7--7--7-----7--7--7---7---------|
G|---6--------6--6--6---6---6-----6--6--6-----6--6--6---6---------|
D|---4--------4--4--4---6---6-----4--4--4-----4--4--4---6---------|
A|---4--------4--4--4---4---4-----4--4--4-----4--4--4---4---------|
E|----------------------------------------------------------------|

    Bm                             F#
e|-----2-------2-------2-------2-------2--------2-------2-------2---|
B|---3---3---3---3---3---3---3---3---2---22---2---2---2---2---2---2-|
G|-4-------4-------4-------4-------3--------3-------3-------3-------|  x 2
D|------------------------------------------------------------------|
A|------------------------------------------------------------------|
E|------------------------------------------------------------------|
Play me Old King Cole
That I may join with you,


  F#m                               D                 E
e|--------------------------------------2-------2---------4-------4----|
B|------2-------2-------2-------2-----3---3---3---3-----5---5---5---5--|
G|----2---2---2---2---2---2---2---2-2-------2-------2/4-------4--------|
D|--4-------4-------4-------4------------------------------------------|
A|---------------------------------------------------------------------|
E|---------------------------------------------------------------------|
All your hearts now seem so far from me

    D                               A
e|------2-------2-------2---4---2-------0-------0-------0-------0----|
B|----3---3---3---3---3---3---3---3---2---2---2---2---2---2---2---2--|
G|--2-------2-------2---------------2-------2-------2-------2--------|
D|-------------------------------------------------------------------|
A|-------------------------------------------------------------------|
E|-------------------------------------------------------------------|
It hardly seems to matter now.

   A
e|------0-------0-------0-------0------|
B|----2---2---2---2---2---2---2---2----|
G|--2-------2-------2-------2----------|
D|-------------------------------------|
A|-------------------------------------|
E|-------------------------------------|

                |---------------------|
                |---------------------|
                |-----------------/4--|
                |----------0---4------|
                |--2---4--------------|

   Bm                             F#
  Guitar 1
e|-----2-------2-------2-------2-------2-------2-------2-------2---|
B|---3---3---3---3---3---3---3---3---2---2---2---2---2---2---2---2-|
G|-4-------4-------4-------4-------3-------3-------3-------3-------|
D|-----------------------------------------------------------------|
A|-----------------------------------------------------------------|
E|-----------------------------------------------------------------|
| Guitar 2                                                        |
E---------------------------------------------------7p6-----6\4---|
B-------------------------------------------------------7---------|
And the nurse will tell you lies

   Bm                             F#
(Guitar 1)
e|-----2-------2-------2-------2-------2-------2-------2-------2---|
B|---3---3---3---3---3---3---3---3---2---2---2---2---2---2---2---2-|
G|-4-------4-------4-------4-------3-------3-------3-------3-------|
D|-----------------------------------------------------------------|
A|-----------------------------------------------------------------|
E|-----------------------------------------------------------------|

(Guitar 2)                                                     
E|---------------------------------------------------7p6---6-6/9-9-|
B|-------------------------------------------------------7---------|
Of a kingdom beyond the skies.

  F#m                               D                 E
e|--------------------------------------2-------2---------4-------4----|
B|------2-------2-------2-------2-----3---3---3---3-----5---5---5---5--|
G|----2---2---2---2---2---2---2---2-2-------2-------2/4-------4--------|
D|--4-------4-------4-------4------------------------------------------|
A|---------------------------------------------------------------------|
E|---------------------------------------------------------------------|
But I am lost within this half-world.

    D                               A
e|------2-------2-------2---4---2-------0-------0-------0-------0----|
B|----3---3---3---3---3---3---3---3---2---2---2---2---2---2---2---2--|
G|--2-------2-------2---------------2-------2-------2-------2--------|
D|-------------------------------------------------------------------|
A|-------------------------------------------------------------------|
E|-------------------------------------------------------------------|
It hardly seems to matter now.                           | Guitar 2 |
                                                         E---19\14--|

   A
e|------0-------0-------0-------0------|
B|----2---2---2---2---2---2---2---2----|
G|--2-------2-------2-------2----------|
D|-------------------------------------|
A|-------------------------------------|
E|-------------------------------------|

e|--14--14-12--12--14-12--141414-9---9--------12---14-12---14-12-----14--|
B|----14--------------------------11--11---------------------------------|
G|----------------------------------------------13-------13------13------|
D|-----------------------------------------------------------------------|
A|-----------------------------------------------------------------------|
E|-----------------------------------------------------------------------|
                                                                       
e|--4-5-7-7p5p4----4----6~--------------------4-5-7-7p5p4-----4------7~--|
B|-------------7-5-----7---------------------------------7-5--------7----|
G|------------------4-6------------------------------------------4-6-----|
D|-----------------------------------------------------------------------|
A|-----------------------------------------------------------------------|
E|-----------------------------------------------------------------------|
     Play me my song.
     Here it comes again.
     Play me my song.
     Here it comes again.

e|--------2-----2------2/3------3-2-----2-----2-----2\0-----0--|
B|----------2-----2--------3--------2-----2-----2-------0------|
G|-------------------------------------------------------------|
D|--4---4-----4------4--------5-------4-----4-----4-------2----|
A|----4--------------------------------------------------------|
E|-------------------------------------------------------------|

e|--2-----2-----2-----2/3------3-2-----2-----2-----2\0-----0--|
B|----2-----2-----2-------3--------2-----2-----2-------0------|
G|------------------------------------------------------------|
D|------4-----4-----4-------5--------4-----4-----4-------2----|
A|------------------------------------------------------------|
E|------------------------------------------------------------|

e|--2-----2-----2-----2/3------3--|
B|----2-----2-----2-------3-------|
G|--------------------------------|
D|------4-----4-----4-------5-----|
A|--------------------------------|
E|--------------------------------|

e|----------5-55-------5----------7-77-------7------9------9-9--10-9-9--|
B|--------5---------5-----------7---------7-------------10--------------|
G|------6--------6------------7--------7--------------9-----------------|
D|--4-7---------------------9-------------------------------------------|
A|----------------------------------------------------------------------|
E|----------------------------------------------------------------------|
                          Just a little bit, Just a little bit more time,

e|--7--5/7--7--9-7---4/5-----55----7--5----5-----55-----5--|
B|----7----7--7-7----------5-----------7-5-----5------5----|
G|---7----7--7-----------6------6------------6------6------|
D|---------------------------------------------------------|
A|---------------------------------------------------------|
E|---------------------------------------------------------|

e|----------9-10p9-7--------------10-9---------------------|
B|--9-10-12-----------9(10)-9--7-------10p9----------------|
G|-----------------------------------------11--9-----------|
D|----------------------------------------------12p11~-----|
A|---------------------------------------------------------|
E|---------------------------------------------------------|
  Time left to live out my life.

e|------3-------3-------3--------5-------3-------3-------3-------3----|
B|----5---5---5---5---5---5----7---7---5---5---5---5---5---5---5---5--|
G|--5-------5-------5-------/7-------5-------5-------5-------5--------|
D|--------------------------------------------------------------------|
A|--------------------------------------------------------------------|
E|--------------------------------------------------------------------|

E|-7-8---|
  Lalalala-lalalalala

e|---------7-----------------------------------|
B|--7---8-----8--------7--8------3---3------3--|
G|---------------7--9--------4~---------4------|
D|---------------------------------5------5----|
A|---------------------------------------------|
E|---------------------------------------------|

e|--17-----14-------12-14-15-------------------|
B|------17----15-15----------12~---------------|
G|---------------------------------------------|
D|---------------------------------------------|
A|---------------------------------------------|
E|---------------------------------------------|

e|---------7-----7--8-10--14\10~---3-------3-------3----------------------|
B|--7---8-----8----------------------3-------3-------3-------3-------3----|
G|-------------------------------------4-------4-------4---2---2---2---2--|
D|---------------------------------------5-------5-------4-------4--------|
A|------------------------------------------------------------------------|
E|------------------------------------------------------------------------|

E|--14--12----14---19-17-15-14-15~--|
B|---------15-----------------------|

e|-------------------------------------------------------------------|
B|------3-------3---5-----5-----5---5-----5-----5---5-----5-----5----|
G|----2---2---2---2---5-----5-----5---5-----5-----5---5-----5-----5--|
D|--4-------4-----------7-----7---------7-----7---------7-----7------|
A|-------------------------------------------------------------------|
E|-------------------------------------------------------------------|

e|--------------------------------------------------5----------------|
B|------------------5-----5-----7---8-----8-----8--------------------|
G|--------------------5-----5-----5---5-----5-----5---5--------------|
D|----------------------7-----7---------7-----7---------7------------|
A|-------------------------------------------------------------------|
E|-------------------------------------------------------------------|

e|--4-----4-4-----4-4-----4-4-----4-3-----5-3-----5-3-----5-3-----5-3--|
B|------5-------5-------5-------5-------5-------5-------5-------5------|
G|----6-------6-------6-------6-------4-------4-------4-------4--------|
D|---------------------------------------------------------------------|
A|---------------------------------------------------------------------|
E|---------------------------------------------------------------------|

e|--17---17-21-17--16-16--14\-14--------17-19-17---15------15----------|
B|--19---19-19-19-----19------14--14/17-17-17------17---17-17----------|
G|--18---18-18-18-----18------14--14/17-17-17------17------17----------|
D|---------------------------------------------------------------------|
A|---------------------------------------------------------------------|
E|---------------------------------------------------------------------|

e|------------------------------------------------------------------------|
B|--------2--------2-------2---------2-------2--------2-------2--------2--|
G|----2--------2-------2--------2--------2--------2-------2-------2-------|
D|--4---4---4----4---4---4---4----4----4---4---4----4---4---4---4---4-----|
A|------------------------------------------------------------------------|
E|------------------------------------------------------------------------|

e|----9-7-9----9---9---9---9----9----9---9-7-9----9---9---9---9---9----9--|
B|--7-------10---9---7---9---10---12---7-------10---9---7---6---7---10----|
G|------------------------------------------------------------------------|
D|------------------------------------------------------------------------|
A|------------------------------------------------------------------------|
E|------------------------------------------------------------------------|

                                    ritardando
e|----5-------5-------5-------5-------5-------5-------5------|
B|------5-------5-------5-------5-------5-------5-------5----|
G|--------5-------5-------5-------5-------5-------5-------5--|
D|--7-------7-------7-------7-------7-------7-------7--------|
A|-----------------------------------------------------------|
E|-----------------------------------------------------------|

e|------------12----8-----10---------------------------------|
B|----------10-------10-----12------10-----------------------|
G|--10-10h12----------------------12------9\7----------------|
D|------------------------------------------------9/10-------|
A|-----------------------------------------------------------|
E|-----------------------------------------------------------|

 D  E  D  E  D  E  D  E  D  A

e|--------9---------------9---------------9----------------|
B|----7-------7-------7-------7-------7-------7-------7----|
G|--9---9---9---9---9---9---9---9---9---9---9---9---9---9--|
D|----------------7---------------7---------------7--------|
A|---------------------------------------------------------|
E|---------------------------------------------------------|

e|---4-------4-------4-------4--------------------------------|
B|.------5-------5-------5-------5---------------------------.|
G|-----4---4---4---4---4---4---4---4----6-----6-----6-----6---|
D|.----------------------------------4-----4-----4-----4-----.|
A|------------------------------------------------------------|
E|------------------------------------------------------------|

e|---4-5-7-7p5p4----4----6~---------4-5-7-7p5p4----4-----7~---|
B|--------------7-5-----7----------------------7-5------7-----|
G|-------------------4-6-----------------------------4-6------|
D|------------------------------------------------------------|
A|------------------------------------------------------------|
E|------------------------------------------------------------|
     Play me my song.
     Here it comes again.
     Play me my song.
     Here it comes again.

E F#m   E F#m   E F#m   E F#m   E F#m   E F#m

F#m E   F#m E   F#m E   F#m E

   (E F#m   E F#m   E F#m   E F#m   F#m E   F#m E   F#m E   F#m E)
e|------------------------------------5-7~----5-7~----5-7-5-7(9)----7(9)7--|
B|--5-7~----5-7~----5-7~----5-7~------------------------------------7(9)7--|
G|-------------------------------------------------------------------------|
D|----------------------------------------------------------(ROAR HERE!----|
A|-------------------------------------------------------------------------|
E|-------------------------------------------------------------------------|

  guitar solo
    F#m
e|------------------------------------------------------|
B|-------9-9~--12-9----------------9~--12-9tr12---------|
G|--6-11------------11--------6/11-----------------11~--|
D|---------------------11~-----------------------11-----|
A|------------------------------------------------------|
E|------------------------------------------------------|

   E
e|----------------------------------------------------------------------------|
B|--9h10p9-------------------------------------7h9p7-7h9p7-7h9p7-7h9p7---9tr5-|
G|-9------9-7h9p7-----------------------------9-----9-----9-----9-----9-------|
D|---------------9-7h9p7p6h7-6-7-6-7/9-9(11)----------------------------------|
A|----------------------------------------------------------------------------|
E|----------------------------------------------------------------------------|

    D
e|------------------------------------------------------------------|
B|--7-9-10-10(12 )10-9-7-9~----7-9-10-10(12)-(12)10-9-10-9-7-9~/10--|
G|------------------------------------------------------------------|
D|------------------------------------------------------------------|
A|------------------------------------------------------------------|
E|------------------------------------------------------------------|

    F#m
e|--------------------------------------------------------|
B|--14p10--10-15p10--10-14p10--10-15p10--10-14p10--10-15--|
G|-------11--------11--------11--------11--------11-------|
D|--------------------------------------------------------|
A|--------------------------------------------------------|
E|--------------------------------------------------------|

                                           E
e|----------------------------------------------------------------------------|
B|-9-10-9-10-9-10-9-10-9-10-9-10-9-10-9-10-9-10-9-10-9-10-9-10-9-10-9-10-9-10~|
G|----------------------------------------------------------------------------|
D|----------------------------------------------------------------------------|
A|----------------------------------------------------------------------------|
E|----------------------------------------------------------------------------|

e|-----------------------------------|
B|--p9-------------------------------|
G|----9--9(11)-9(11)9--9(11)-9(11)9--|
D|------9-------------9--------------|
A|-----------------------------------|
E|-----------------------------------|

    D                                                            F#m
e|---------------------------------------------------------------------|
B|--7-9-10-10(12)-10-9-7-9~----7-9-10-10(12)-(12)10-9-10-9-7-9~--7~~~--|
G|---------------------------------------------------------------------|
D|---------------------------------------------------------------------|
A|---------------------------------------------------------------------|
E|---------------------------------------------------------------------|

acoustic guitar:
F#m  B  Bm  F#m  E

e|----10-9---------------------|
B|---10----12-10-9-------------|
G|--11-------------11-9--------|
D|----------------------12-11--|
A|-----------------------------|
E|-----------------------------|

F#m                  B
Old King Cole was a merry old soul

e|         Bm                F#m  E         |----------------------2-2--|
B|and the merry old soul was me             |----2--2--2-3-2-5-3-2------|
G|                                          |-----2---------------------|
D|                                          |---------------------------|
A|                                          |---------------------------|
E|                                          |--2------------------------|

       F#m                        B
So he called for his pipe and he called for his bow (bone?)

e|        Bm                        F#m  E       |----10-9---------------------|
B|and he called for his fiddlers three           |---10----12-10-9-------------|
G|                                               |--11-------------11-9--------|
D|                                               |----------------------12-11--|
A|                                               |-----------------------------|
E|                                               |-----------------------------|

    F#m                 E      D
e|---------------------------------------|
B|----------------------------------7----|
G|------------------------------------7--|
D|--11-12-11-----------------------------|
A|---------------------------------------|
E|---------------------------------------|

e|---------------------------------------|
B|-----------9-10-12~---9------7---------|
G|------------------------9~-----7~------|
D|---------------------------------------|
A|---------------------------------------|
E|---------------------------------------|
And the clock, tick tock, on the mantelpiece

e|-----------|
B|--------7--|
G|--------7--|  x 4
D|--4-6-7-7--|
A|--------5--|
E|-----------|
and I want
and I feel
and I touch
and I know ... The waaaaaaaaalll!!!!

 E F#m
  keyboard solo
e|------------------------------------------------------------|
B|--7~--5h7-5---------------------------------------------7~--|
G|--------------6h7p6----4h6p4-----------------------6-6h9----|
D|------------9------7-7------6--6h7h9----6-6h7h9-7h9---------|
A|-------------------------------------7h9--------------------|
E|------------------------------------------------------------|

 E  F#m                           E F#m
e|--9-7----7h9p7--------------------------9~--|
B|------10------10-9-10h12p10-9-7-9-10-12-----|
G|--------------------------------------------|
D|--------------------------------------------|
A|--------------------------------------------|
E|--------------------------------------------|

                              E F#m                               E F#m/
e|-----14-12------------------------------------14-12-------------14-12-------|
B|--12----------12h14p12----------------------14-----12---------14-----12-----|
G|-----------14---------14-13-14h16p14-13---14---------13-----14---------13---|
D|----------------------------------------16-------------14-16-------------14-|
A|----------------------------------------------------------------------------|
E|----------------------------------------------------------------------------|

                                        C#m D             B               F#m
e|----------------------------------------------------------------------------|
B|---14-----12-----------------------------------------------------------tr14-|
G|--14-14-----13---11~~-------------------------------------------------11tr--|
D|-16----16-----14------------------------------------------------------------|
A|----------------------------------------------------------------------------|
E|----------------------------------------------------------------------------|
                   guitar                                                    
                 e|--------------------------------7-9-10-9-12-10-9----12-14~-|
                 B|-------------------------7-9-10----------------------------|
                 G|-----6-------------6-7-9-------------------------11--------|
                 D|-7-9---7-6---6-7-9-----------------------------------------|
                 A|-----------9-----------------------------------------------|
                 E|-----------------------------------------------------------|

  keyboard
 E F#m                      E F#m                     E F#m
e|----------------------------------------------------------------------------|
B|----14-14-14-14-14-14-14-14-14-14-14-14-14-14-14-14-14-14-14-14-14-14-14-14-|
G|--11-13-14-13-14-11~-------11-13-14-16-18~---14~---16~---13~--14-13-11-13---|
D|----------------------------------------------------------------------------|
A|----------------------------------------------------------------------------|
E|----------------------------------------------------------------------------|

  E F#m
e|-------------------------------------------------|
B|-------------------------------------------------|
G|-------------------------------------------------|
D|--7--9---11---9---7--7-9---9-11---11-13--13-13~--|
A|---9--11---12--11--9----11-----12------14--------|
E|-------------------------------------------------|

  guitar                C#m D             B
e|---------------------------------7-9-10-9-12-10-9----12--|
B|--------------------------7-9-10-------------------------|
G|------6-------------6-7-9-------------------------11-----|
D|--7-9---7-6---6-7-9--------------------------------------|
A|------------9--------------------------------------------|
E|---------------------------------------------------------|

      notes in paranthesis are keyboard
e|           |----(14)--(14)-|
B|           |--------14\----|
G|E F#m/     |--14/----------|   x 3
D|           |---------------|
A|           |---------------|
E|           |---------------|


e|           |--13(14)---------|
B|           |---------13(14)--|
G|E F#m/     |-----------------|
D|           |-----------------|
A|           |-----------------|
E|           |-----------------|

                        C#m D             B               F#m
e|---------------------------------7-9-10-9-12-10-9----12-14~~--|
B|--------------------------7-9-10------------------------------|
G|------6-------------6-7-9-------------------------11----------|
D|--7-9---7-6---6-7-9-------------------------------------------|
A|------------9-------------------------------------------------|
E|--------------------------------------------------------------|


  keyboard
e|-----------------12h14~--19h21~--12h14~-----------------|
B|---------12h14~--------------------------12h14~---------|
G|--9h11~------------------------------------------9h11~--|
D|--------------------------------------------------------|
A|--------------------------------------------------------|
E|--------------------------------------------------------|

  guitar
    E                             F#m
e|-------------------------------------------------|
B|-------------------------------------------------|
G|--6-------6------6-------6------6~~-6~~-6~~-6~~--|
D|----9-7-9--9--7h9--9-7-9---9-7h9-----------------|
A|-------------------------------------------------|
E|-------------------------------------------------|

    E                                  F#m
e|------------------------------------------------------|
B|------------------------------------------------------|
G|--6--------6--------6---------6------6~~-6~~-6~~-6~~--|
D|----9-7-9----9---7h9---9-7-9----9-7h9-----------------|
A|------------------------------------------------------|
E|------------------------------------------------------|

e|------------------------------------------------------|
B|-10-9-7-9-10-9--7h9h10-9-7-9-10-9-7h9-???-------------|
G|------------------------------------------------------|
D|------------------------------------------------------|
A|------------------------------------------------------|
E|------------------------------------------------------|

  I don't know the number of guitars here. Perhaps it's just effects.
    E                            F#m
e|-------------------------12-14-17\----------------|
B|------------7-9-10-12-14--------------------------|
G|------6-7-9---------------------------------------|
D|--7-9-------------------------------11---11---11--|
A|--------------------------------------------------|
E|--------------------------------------------------|

e|-------------------------------14\----------------|
B|----------------7--9--10-12-14--------------------|
G|----------6-7-9-----------------------------------|
D|----6-7-9-----------------------------------------|
A|--9-----------------------------------------------|
E|--------------------------------------------------|

    E                                               F#m
e|-----------------------------------------16-17-19-21\-----------------------|
B|-----------------------------14-15-17-19------------------------------------|
G|-----------------11-13-14-16------------------------------------------11~~~-|
D|--------11-12-14---------------------------------------11--11--11--11-------|
A|--12-14---------------------------------------------------------------------|
E|----------------------------------------------------------------------------|

   F# pattern                       D#m pattern
e|-----9-7-9-7-9-7-9---9-7-9---9-7-9----6-4-6---6-4-6---6-4-6---6-4-6-----|
B|----7-7-7-7-7-7-7-7-7-7-7-7-7-7-7-7--4-4-4-4-4-4-4-4-4-4-4-4-4-4-4-4----|
G|*-----------------------------------------------------------------------|
D|*-----------------------------------------------------------------------|
A|---9---------------9-------9------9\6-------6-------6-------6------6\---|
E|------------------------------------------------------------------------|
                                    1. She's a lady, she's got time        Oh
                                    2. She's a lady, she is mine           Oh

                                                                   ______
    C# pattern        E pattern       F# pattern 2                 | 1.
e|----4-2-4---4-2-4-------0-------0------------------------------------||
B|---2-2-2-2-2-2-2-2-----0-0-----0-0---2---2---2---0----2---2---2------||
G|----------------------1---1---1---1---3---3---3---1----3---3---3----*||
D|---------------------2-----2-2-----2---4---4---4---2----4---4---4---*||
A|--4-------4-------4-2-------2----------------------------------------||
E|------------------------------------2---2---2---0----2---2---2---2---||
   Brush back your hair, and let me get to know your face
   Brush back your hair, and let me get to know your flesh.

2.
Now Tony comes in on the organ.
                                   |-|
  Organ:|F#  B   C#  F# |/.  B C#   F# C#|D#m. A#mD#m. A#m|C# G#m   B  /   |
e|--------9-7-9-7-9-7-9---9-7-9---9-7-9----6-4-6---6-4-6---6-4-6---6-4-6-----|
B|-------7-7-7-7-7-7-7-7-7-7-7-7-7-7-7-7--4-4-4-4-4-4-4-4-4-4-4-4-4-4-4-4----|
G|*--------------------------------------------------------------------------|
D|*--------------------------------------------------------------------------|
A|------9---------------9-------9------9\6-------6-------6-------6------6\---|
E|---------------------------------------------------------------------------|
1.                                   I've been waiting here for so long
2.You stand there with your fixed expression casting doubt on all I have to say

                                   |1.
   |F#.  E F#  E F#|E. F# E F# E F#|B.   E F# E B E|F#                
e|----4-2-4---4-2-4--2---2---2---2-------------------2---2---2---2-----|
B|---2-2-2-2-2-2-2-2--2---2---2---2---4---4---4---4---2---2---2---2----|
G|---------------------3---3---3---3-4-4-4-4-4-4-4-4---3---3---3---3--*|
D|------------------4---4---4---4---4---4---4---4---4---4---4---4-----*|
A|--4-------4----------------------------------------------------------|
E|---------------------------------------------------------------------|
and all this time has passed me by  It hardly seems to matter now
why don't you touch me, touch me why don't you touch me, touch me touch me

2.                                                        |1.
   B.   E F# E B E   |:  F# .  E F# E B E |B .  E F# E B E  :|
e|-------------------|---------------------------------------|
B|-------------------|---------------------------------------|
G|-------------------|*-------------------------------------*|
D|-------------------|*--8~----6-8--6---6-------6-8--6---6--*|
A|-------------------|----------------9----9~----------9-----|
E|-------------------|---------------------------------------|
now now now now now                       now now now now now

2.                                    |1.
     F# .  E F# E B E |B .  E F# E B E
e|---------------------------------------|
B|---11~---9-11-9---9-------9-11-9---9---|
G|*---------------11---11~---------11---*|
D|*-------------------------------------*|
A|---------------------------------------|
E|---------------------------------------|
                      now now now now now

 ending
2.
   B /    /      /         |C# / /    / |F#     / / /        |
e|------------------------------------------------------------|
B|--------------9-----------9(11~)9~--/11-12p11-----11-12-14--|
G|--11~---10-11--11--10-11---------------------11-------------|
D|-----------------------------------------------11-----------|
A|------------------------------------------------------------|
E|------------------------------------------------------------|

 |  B   /      C#  /   | F#      / /       B  C#|F#
e|--14--14-16-16(18)16---18(19)18-------21(23)21------|
B|-------------------------------19--19----------19~--|
G|----------------------------------------------------|
D|----------------------------------------------------|
A|----------------------------------------------------|
E|----------------------------------------------------|

    F#                                              F#  C#  F#  F#C#  F#
e|--18p16-18p16-18p16-18p16-18p16-18p16-18p16-18p16-14------14--14----222222--|
B|------------------------------------------------------14--------14--222222--|
G|--------------------------------------------------------------------333333--|
D|--------------------------------------------------------------------444444--|
A|--------------------------------------------------------------------444444--|
E|--------------------------------------------------------------------222222--|

************************************

| /    Slide up
| p    Pull-off
| \    Slide down
| ~    Vibrato
| (n)  Ghost note
| h    Hammer-on
| tr   Trill
| *    Natural harmonic
| .    Staccato

************************************
Suggest correction
comments
print report bad tab
2 comments total.
0 reply
Shoemakes 10 Sep 21, 2011 04:18 PM

Fantastic tab. Ive only learned the first half but from what all I hear its all spot on.

0 reply
Borkiz95 801 Jul 04, 2013 03:34 PM

Great tab! Thank you wery much, it was perfect!

guest
You may want to rate the tab now too:
select rating
Wanna post a correction for this tab? Suggest correction