Oops, an error
Loading. Please wait.

Suppers Ready bass

version 1
version 1

Whole song

Interactive

by Genesis
139 views 12 this week
no commentswrite comment
1 2 3 4 5
2 more votes to show rating
add to favorites
×
Save as Personal and add changes to this tab that will be seen only by you. Learn more ›
×
You can save this tab as Personal to edit and correct it or add notes. All changes will be seen only by you. Learn more »
launch autoscroll
font size
0
reset
guitar tuner
edit
Autoscroll
slow
fast
+/-
esc
set tempo
stop
Author
Difficulty
Artist : Genesis
Album : Foxtrot
Song : Supper's Ready

Far from perfect I think, but gives a solid base to whoever wants to learn it.


I. Lover's Leap (0:00 - 3:47)

 4/4
G|----------------|----------------|----------------|----------------|
D|----------------|----------------|9---------------|----------------|
A|0---------------|----------------|----------------|----------------|--|
E|----------------|----------------|----------------|----------------|  |
  1 + 2 + 3 + 4 +  1 + 2 + 3 + 4 +  1 + 2 + 3 + 4 +  1 + 2 + 3 + 4 +    |
                                                                        |
G|----------------|----------------|----------------|----------------|  |
D|9---------------|----------------|9-----------6---|8---------------|  |
A|------------4---|5----7------9---|------9---------|----------------|  |
E|----------------|----------------|----------------|----------------|  |
  1 + 2 + 3 + 4 +  1 + 2 + 3 + 4 +  1 + 2 + 3 + 4 +  1 + 2 + 3 + 4 +    |
                                                                        |
G|----------------|----------------|----------------|----------------|  |
D|7---------------|----------------|9---------------|----------------|  |
A|----------------|----------------|----------------|----------------|  | Wait the guitar interlude 
E|----------------|----------------|----------------|----------------|  |      and repeat once
  1 + 2 + 3 + 4 +  1 + 2 + 3 + 4 +  1 + 2 + 3 + 4 +  1 + 2 + 3 + 4 +    |
                                                                        |
G|----------------|----------------|----------------|----------------|  |
D|8---------------|7-----------7---|8---------------|----------------|  |
A|----------------|------8---------|----------------|----------------|  |
E|----------------|----------------|----------------|----------------|  |
  1 + 2 + 3 + 4 +  1 + 2 + 3 + 4 +  1 + 2 + 3 + 4 +  1 + 2 + 3 + 4 +    |
                                                                        |
G|----------------|----------------|----------------|----------------|  |
D|8---------------|----------------|7---------------|8---------------|  |
A|----------------|----------------|----------------|------------5---|  |
E|----------------|----------------|----------------|----------------|  |
  1 + 2 + 3 + 4 +  1 + 2 + 3 + 4 +  1 + 2 + 3 + 4 +  1 + 2 + 3 + 4 +    |
                                                                        |
G|----------------|----------------|----------------|----------------|  |
D|----------------|----------------|----------------|----------------|--|
A|6---------------|8---------------|9---------------|10--------------|
E|----------------|----------------|----------------|----------------|
  1 + 2 + 3 + 4 +  1 + 2 + 3 + 4 +  1 + 2 + 3 + 4 +  1 + 2 + 3 + 4 +  
                                        
(2:05)
 Let the guitar alone some bars and quietly come in.
G|----------------|
D|12------12------|
A|----------------| Repeat until the end of the song part
E|----------------|
  1 + 2 + 3 + 4 +  

At 2:58 the synth does a little melody that bass can do aswell (it's up to you)
G|----------------|----------------|----------------|----------------|
D|------------10--|9-------10--12--|14------12--10--|9-------10------|
A|8---10---12-----|----------------|----------------|----------------|
E|----------------|----------------|----------------|----------------|
  1 + 2 + 3 + 4 +  1 + 2 + 3 + 4 +  1 + 2 + 3 + 4 +  1 + 2 + 3 + 4 +  

Same at 3:14
G|----------------|
D|------------10--|
A|8---10--12------|
E|----------------|
  1 + 2 + 3 + 4 +  



II. The Guaranteed Eternal Sanctuary Man (3:48 - 5:43)

(4:24)
G|----------------|----------------|----------------|----------------|
D|----------------|----------------|----------------|----------------|
A|----------------|----------------|----------------|----------------|--|
E|5-------5-------|5-------5-------|5-------5-------|5-------5-------|  |
  1 + 2 + 3 + 4 +  1 + 2 + 3 + 4 +  1 + 2 + 3 + 4 +  1 + 2 + 3 + 4 +    |
                                                                        |
G|----------------|----------------|----------------|----------------|  |
D|----------------|----------------|----------------|----------------|  |
A|----------------|----------------|----------------|----------------|  |
E|3-------3-------|3-------3-------|3-------3-------|3-------3---0---|* |
  1 + 2 + 3 + 4 +  1 + 2 + 3 + 4 +  1 + 2 + 3 + 4 +  1 + 2 + 3 + 4 +    |
                                                                        |
G|----------------|----------------|----------------|----------------|  |
D|----------------|----------------|----------------|----------------|  |  x2
A|----------------|----------------|----------------|----------------|  |
E|5-------5-------|5-------5-------|5-------5-------|5-------5-------|  |
  1 + 2 + 3 + 4 +  1 + 2 + 3 + 4 +  1 + 2 + 3 + 4 +  1 + 2 + 3 + 4 +    |
                                                                        |
G|----------------|----------------|----------------|----------------|  |
D|----------------|----------------|----------------|----------------|  |
A|----------------|----------------|----------------|----------------|  |
E|3-------3-------|3-------3-------|7-------7-------|9-------9-------|  |
  1 + 2 + 3 + 4 +  1 + 2 + 3 + 4 +  1 + 2 + 3 + 4 +  1 + 2 + 3 + 4 +    |
                                                                        |
G|----------------|----------------|----------------|----------------|  |
D|----------------|----------------|----------------|----------------|--|
A|3-------3-------|----------------|3-------3-------|5-------5-------|  
E|----------------|5-------5-------|----------------|----------3-----|
  1 + 2 + 3 + 4 +  1 + 2 + 3 + 4 +  1 + 2 + 3 + 4 +  1 + 2 + 3 + 4 +  
                                                               
*In this line you can play G or A : in the song it might be A, but it's fine with G.



 III. Ikhnaton and Itsacon and Their Band of Merry Men (5:44 - 9:42)

(6:33)
G|----------------|----------------|
D|----------------|----------------|
A|5---------------|5---------------| x4
E|----------------|----------------|
  1 + 2 + 3 + 4 +  1 + 2 + 3 + 4 +  
 
G|----------------|----------------|
D|----------------|----------------|
A|5-------------x-|x-5-------------| x7
E|----------------|----------------|
  1 + 2 + 3 + 4 +  1 + 2 + 3 + 4 +  

G|----------------|----------------|----------------|----------------|
D|----------------|----------------|7---------------|----------------|
A|8-----8---------|7-----7---------|----------------|x-5--------/12\-|
E|----------------|----------------|----------------|----------------|
  1 + 2 + 3 + 4 +  1 + 2 + 3 + 4 +  1 + 2 + 3 + 4 +  1 + 2 + 3 + 4 +  

G|----------------|----------------|
D|----------------|----------------|
A|5-------------x-|5-5-----------5-| x12
E|----------------|----------------|
  1 + 2 + 3 + 4 +  1 + 2 + 3 + 4 +  

wait during the tapping part

G|----------------|----------------|
D|----------------|----------------|
A|5---5-----------|--5-------------| x14
E|----------------|----------------|
  1 + 2 + 3 + 4 +  1 + 2 + 3 + 4 +  

G|----------------|----------------|----------------|----------------|
D|----------------|----------------|7---------------|----------------|
A|8-----8---------|7-----7---------|----------------|--5-------5-----|
E|----------------|----------------|----------------|----------------|
  1 + 2 + 3 + 4 +  1 + 2 + 3 + 4 +  1 + 2 + 3 + 4 +  1 + 2 + 3 + 4 +  

G|----------------|----------------|----------------|----------------|
D|----------------|----------------|----------------|----------------|
A|8-----8-----8--r|----------------|----------------|8-----8-----8--r|
E|----------------|----------------|----------------|----------------|
  1 + 2 + 3 + 4 +  1 + 2 + 3 + 4 +  1 + 2 + 3 + 4 +  1 + 2 + 3 + 4 +  

G|----------------|----------------|----------------|----------------|
D|----------------|----------------|10----10----10-r|----------------|
A|----------------|----------------|----------------|----------------|
E|----------------|----------------|----------------|----------------|
  1 + 2 + 3 + 4 +  1 + 2 + 3 + 4 +  1 + 2 + 3 + 4 +  1 + 2 + 3 + 4 +  

G|----------------|----------------|----------------|----------------|
D|----------------|10----10----10-r|----------------|10----10----10-r|
A|----------------|----------------|----------------|----------------| fade out
E|----------------|----------------|----------------|----------------|
  1 + 2 + 3 + 4 +  1 + 2 + 3 + 4 +  1 + 2 + 3 + 4 +  1 + 2 + 3 + 4 + 



V. How Dare I Be So Beautiful? (9:43 - 11:04) 

No bass during this part



V. Willow Farm (11:05 - 15:37)

"A flower ?"
G|----------------|----------------|----------------|----------------|
D|----------------|----------------|----------------|6---6---8--8----|
A|6---4-----------|----------------|6---6---9---9---|----------------|--| 
E|--------7---5---|4---4---7---7---|----------------|----------------|  |
  1 + 2 + 3 + 4 +  1 + 2 + 3 + 4 +  1 + 2 + 3 + 4 +  1 + 2 + 3 + 4 +    |
                                                                        |
G|----------------|-----------------|----------------|----------------| |
D|8---\-----------|-----------------|----------------|----------------| |
A|--------6---6---|6---6-/-11-----11|11--11--11----11|--11--\-7---7---| |
E|----------------|-----------------|----------------|----------------| |
  1 + 2 + 3 + 4 +  1 + 2 + 3 + 4 +   1 + 2 + 3 + 4 +  1 + 2 + 3 + 4 +   | x2
                                                                        |
G|----------------|----------------|----------------|----------------|  |
D|----------------|----------------|----------------|----------------|  |
A|6---6---5---5---|5---5---6---6---|5---5---4---4---|4---4---5-------|  |
E|----------------|----------------|----------------|----------------|  |
  1 + 2 + 3 + 4 +  1 + 2 + 3 + 4 +  1 + 2 + 3 + 4 +  1 + 2 + 3 + 4 +    |
                                                                        |
                                  G|----------------|----------------|  | 
                                  D|----------------|----------------|--|
                                  A|6-------7-------|6---------------|
                                  E|----------------|----------------|
                                    1 + 2 + 3 + 4 +  1 + 2 + 3 + 4 +  

G|----------------|------------14r-------14|------------14r-------14|------------14r----------|
D|---------------/|14r--------14-----------|14r--------14-----------|14r--------14------------|
A|----------------|------------------------|------------------------|-----------------------4-|
E|--------7---6---|------------------------|------------------------|-------------------------|
  1 + 2 + 3 + 4 +  1  +  2  +  3  +  4  +   1  +  2  +  3  +  4  +   1  +  2  +  3  +  4  +  

G|----------------|----------------|------------14r-------14|------------14r-------14|
D|----------------|------------6/--|14r--------14-----------|14r--------14-----------|
A|----------------|----------------|------------------------|------------------------|
E|--------------4-|----------------|------------------------|------------------------|
  1 + 2 + 3 + 4 +  1 + 2 + 3 + 4 +  1  +  2  +  3  +  4  +   1  +  2  +  3  +  4  +  

G|------------14r----------|----------------|----------------|
D|14r-------14-------------|--------------6-|--------------r-|
A|-----------------------4-|----------------|----------------|
E|-------------------------|----------------|----------------|
  1  +  2  +  3  +  4  +    1 + 2 + 3 + 4 +  1 + 2 + 3 + 4 +   

"ALL CHANGE !"
G|--------------------------------|--------------------------------|
D|--------------------------------|--------------------------------|
A|--------------------------------|--------------------------------|
E|----------------------------4---|2---2-------------------------4-|
  1   +   2   +   3   +   4   +    1   +   2   +   3   +   4   +    

G|--------------------------------|------------8-----------10\-----|
D|--------------------------------|--------------------------------|
A|4r------3r------4r------3r------|----6---------------------------|
E|------4-------4-------4-------4-|6-------------------------------|
  1   +   2   +   3   +   4   +    1   +   2   +   3   +   4   +  
  
G|--------------------------------|--------------------------------|
D|6---6---6---6---6---6---6-------|--------------------------------|
A|--------------------------------|4r------3r------4r------3r------|
E|------------------------------4-|------4-------4-------4-------4-|
  1   +   2   +   3   +   4   +    1   +   2   +   3   +   4   +    

G|------------8-----------8ph10p8-|--------------------------------|
D|--------------------------------|6-------6-------8---------------|
A|----6---------------------------|--------------------------------|
E|6-------------------------------|--------------------------------|
  1   +   2   +   3   +   4   +    1   +   2   +   3   +   4   +    

G|--------6---8---10--10--10--10--|10------10--8---8---8---8---8---|
D|10--10----------x---x---x---x---|----------------x---x---x---x---|
A|----------------8---8---8---8---|----8-----------6---6---6---6---|
E|--------------------------------|--------------------------------|
  1   +   2   +   3   +   4   +    1   +   2   +   3   +   4   +    

G|8-------8---6---6---6---6---6---|6-------6-----------------------|
D|----------------x---x---x---x---|--------------------------------|
A|----6-----------4---4---4---4---|----4-------4---5-------5-------|
E|--------------------------------|--------------------------------|
  1   +   2   +   3   +   4   +    1   +   2   +   3   +   4   +    

G|--------------------------------|--------------------------------|
D|----------------7---------------|------------------------3-------|
A|5-------5-----------------------|--------------------5-------6---|
E|--------------------------------|----------------4---------------|
  1   +   2   +   3   +   4   +    1   +   2   +   3   +   4   +    

G|--------------------------------|
D|----6---------------------------|
A|5-------------------------------|
E|--------------------------------|
  1   +   2   +   3   +   4   +    

G|----------------|----------------|----------------|----------------|
D|----------------|6-----6-9---9---|----------------|6---6---8--8----|
A|----------------|----------------|6---6---9---9---|----------------| 
E|----------------|----------------|----------------|----------------|
  1 + 2 + 3 + 4 +  1 + 2 + 3 + 4 +  1 + 2 + 3 + 4 +  1 + 2 + 3 + 4 + 

G|----------------|-----------------|----------------|------------9---|
D|8---\-----------|-----------------|----------------|----------------|
A|--------6---6---|6---6-/-11-----11|11--11--11----11|--11--\-7-7---5-|
E|----------------|-----------------|----------------|----------------|
  1 + 2 + 3 + 4 +  1 + 2 + 3 + 4 +   1 + 2 + 3 + 4 +  1 + 2 + 3 + 4 + 

G|----8-------7---|----7-------8---|----7-------6---|----6-----------|
D|----------------|----------------|----------------|----------------|
A|6-6---6-5-5---5-|5-5---5-6-6---5-|5-5---5-4-4---4-|4-4---4-5-------|
E|----------------|----------------|----------------|----------------|
  1 + 2 + 3 + 4 +  1 + 2 + 3 + 4 +  1 + 2 + 3 + 4 +  1 + 2 + 3 + 4 + 

G|----------------|----------------|----------------|----------------|
D|----------------|----------------|----------------|----------------|
A|6-------7-------|6---------------|6--4------------|----------------|
E|----------------|----------------|--------7---5---|3---------------|
  1 + 2 + 3 + 4 +  1 + 2 + 3 + 4 +  1 + 2 + 3 + 4 +  1 + 2 + 3 + 4 + 



VI. Apocalypse in 9/8 (Co-Starring the Delicious Talents of Gabble Ratchet) (15:38 - 20:45)

 9/8 (15:35)
G|------------------------------------|------------------------------------|
D|4-4-4-4-4-4-4-4-4-4-4-4-4-4-4-4-4-4-|5-5-5-5-5-5-5-5-5-5-5-5-5-5-5-5-5-5-|
A|------------------------------------|------------------------------------|
E|------------------------------------|------------------------------------|
  1 + 2 + 3 + 4 + 5 + 6 + 7 + 8 + 9 +  1 + 2 + 3 + 4 + 5 + 6 + 7 + 8 + 9 +

G|------------------------------------|------------------------------------|
D|4-4-4-4-4-4-4-4-4-4-4-4-4-4-4-4-4-4-|5-5-5-5-5-5-5-5-5-5-5-5-5-5-5-5-5-5-|
A|------------------------------------|------------------------------------|
E|------------------------------------|------------------------------------|
  1 + 2 + 3 + 4 + 5 + 6 + 7 + 8 + 9 +  1 + 2 + 3 + 4 + 5 + 6 + 7 + 8 + 9 +

G|------------------------------------|------------------------------------|
D|4-4-4-4-4-4-4-4-4-4-4-4-4-4-4-4-4-4-|5-5-5-5-5-5-5-5-7-7-7-7-7-7-7-7-7-7-|
A|------------------------------------|------------------------------------|
E|------------------------------------|------------------------------------|
  1 + 2 + 3 + 4 + 5 + 6 + 7 + 8 + 9 +  1 + 2 + 3 + 4 + 5 + 6 + 7 + 8 + 9 +

G|------------------------------------|
D|------------------------------------|
A|------------------------------------| repeat for a VERY long time
E|0-0---0---0-0-0---0-0---0---0-0-0---|
  1 + 2 + 3 + 4 + 5 + 6 + 7 + 8 + 9 +  

(20:25) with a pedal sound
4/4
G|----------------|
D|----------------|
A|---------------5|
E|----------------|
  1 + 2 + 3 + 4 +  

G|----------------|----------------|----------------|----------------|
D|5---------------|5---------------|5---------------|5---------------|
A|---------------5|---------------5|---------------5|---------------5|
E|----------------|----------------|----------------|----------------|
  1 + 2 + 3 + 4 +  1 + 2 + 3 + 4 +  1 + 2 + 3 + 4 +  1 + 2 + 3 + 4 + 

G|----------------|----------------|----------------|----------------|
D|7---------------|7---------------|7---------------|5---------------|
A|---------------5|---------------5|----------------|----------5-----|
E|----------------|----------------|----------------|----------------|
  1 + 2 + 3 + 4 +  1 + 2 + 3 + 4 +  1 + 2 + 3 + 4 +  1 + 2 + 3 + 4 + 



VII. As Sure As Eggs Is Eggs (Aching Men's Feet) (20:45 - 22:54)


G|----------------|----------------|----------------|----------------|
D|----------------|----------------|----------------|----------------|
A|----------------|----------------|----------------|----------------| x3-|
E|5--------------0|5--------------0|5--------------0|5--------------0|    |
  1 + 2 + 3 + 4 +  1 + 2 + 3 + 4 +  1 + 2 + 3 + 4 +  1 + 2 + 3 + 4 +      |
                                                                          |
G|----------------|----------------|----------------|----------------|    |
D|----------------|----------------|----------------|----------------|    | 
A|----------------|----------------|----------------|----------------|    | repeat and fade out
E|5--------------0|5--------------0|7---------------|9---------------|    |
  1 + 2 + 3 + 4 +  1 + 2 + 3 + 4 +  1 + 2 + 3 + 4 +  1 + 2 + 3 + 4 +      |
                                                                          |
G|----------------|----------------|----------------|----------------|    |
D|----------------|----------------|----------------|----------------|----|
A|----------------|----------------|----------------|----------------|  
E|8---------------|10--------------|8---------------|10--------3-----|
  1 + 2 + 3 + 4 +  1 + 2 + 3 + 4 +  1 + 2 + 3 + 4 +  1 + 2 + 3 + 4 + 



************************************

| x   Dead note
| (n) Ghost note
| h   Hammer-on
| p   Pull-off
| r   Release
| /   Slide up
| \   Slide down

************************************

            
            
Suggest correction
Creating personal tab
Creating personal tab
You can edit any tab online and save it as your Personal.

You can edit, replace or remove any tab part or add personal notes – all changes will be seen only by you.

Personal tabs can be accessed anytime from any device, even offline.
Learn more »
Give kudos to tab author, rate the tab!
1 2 3 4 5
comments
print report bad tab
guest
You may want to rate the tab now too:
select rating
Wanna post a correction for this tab? Suggest correction