Oops, an error
Loading. Please wait.

Shes A Witch tab

by Gengahr
3,534 views 12 this week
no commentswrite comment
1 2 3 4 5
x 7
add to favorites
×
Save as Personal and add changes to this tab that will be seen only by you. Learn more ›
×
You can save this tab as Personal to edit and correct it or add notes. All changes will be seen only by you. Learn more »
launch autoscroll
font size
0
reset
how to read this tab
guitar tuner
edit
Autoscroll
slow
fast
+/-
esc
set tempo
stop
Author
Difficulty
-------------------------------------------------------------------------------
                             She's A Witch - Gengahr
-------------------------------------------------------------------------------
Tabbed by: jordanaltimimi
E-mail: jordanhussain1@gmail.com

Couldn't find this tabbed anywhere else online. Tabbed it by ear off the NME acoustic
session so may be a few mistakes (let me know if there are any to amend) but this is 
ever so
slightly variated from the studio track.

Tuning: standard

Intro & choruses follow progression - A, E Minor, D, G
Verses follow progression -  D, G, F#, G

*STRUCTURE OF SONG*

-Intro (x1 progression)
-Chorus (x2 progressions) (note: chorus & intro are exactly the same)
-Verse One (x3 progressions)
-Chorus (x2 progressions)
-Verse Two (x3 progressions)
-Chorus (x2 progressions)
-Solo (not guitar piece) (he just strums chorus progression under the solo)
-Chorus (x2 progressions)
-Outro (x1 progression)


Intro / Chorus :

   On A barre chord (5th fret);
e|----------------------------------|
B|----------------------------5-----|
G|----6---------6---------6-----6---|
D|------7---------7---------7-----7-|
A|----------------------------------|
E|--5---------5---------5-----------|


   On E minor barre chord 7th fret;
e|-----------------------------------|
B|---8-------------------------------|
G|-----9-----------------------------|
D|-----------------------------------|
A|-7---------------------------------|
E|-----------------------------------|


   On D barre chord (10th fret);
e|-----------------------------------|
B|-----------------------------------|
G|----11-----------------------------|
D|-------12--------------------------|
A|-----------------------------------|
E|-10--------------------------------|


   On G barre chord (3rd fret);
e|------------------------------------|
B|--------------------------3---------|
G|---4--------4---------4-----4-------|
D|-----5--------5---------5-----5-----|
A|------------------------------------|
E|-3--------3---------3---------------|

Verses:

e|------------------------------------|
B|----10---------10-------------------|
G|-------11---------11----------------|
D|----------------------0-------------|
A|-12---------12----------------------|
E|------------------------------------|

e|------------------------------------|
B|---3-------3------------------------|
G|-----4-------4----------------------|
D|-----------------0------------------|
A|-5------5---------------------------|
E|------------------------------------|

e|------------------------------------|
B|---2-------2------------------------|
G|-----3-------3----------------------|
D|----------------0-------------------|
A|-4------4---------------------------|
E|------------------------------------|

e|------------------------------------|
B|---3-------3------------------------|
G|-----4-------4----------------------|
D|-----------------0------------------|
A|-5------5---------------------------|
E|------------------------------------|

Outro:

e|------------------------------------|
B|-10-------10-------10-------10------|
G|----11-------11-------11--------11--|
D|------------------------------------|
A|-12-------12-------12-------12------|
E|------------------------------------|


*******************************************
*******************************************

            
            
Suggest correction
Creating personal tab
Creating personal tab
You can edit any tab online and save it as your Personal.

You can edit, replace or remove any tab part or add personal notes – all changes will be seen only by you.

Personal tabs can be accessed anytime from any device, even offline.
Learn more »
comments
print report bad tab
guest
You may want to rate the tab now too:
select rating
Wanna post a correction for this tab? Suggest correction