Oops, an error
Loading. Please wait.

El Vato Bass

42 views 1 this week
no commentswrite comment
1 2 3 4 5
3 more votes to show rating
add to favorites
launch autoscroll
font size
0
reset
guitar tuner
×
Best way to learn
"El Vato"
Autoscroll
slow
fast
+/-
esc
set tempo
stop
Aqui esta una buena rola de los genitallicos....nadamas son tres partes y una 
que otra variación...al igual que otras...uno tonos no se alcanzan por que es un
bajo de 5 cuerdas...y yo no tengo...
~~~~~~~~~~~~~~~~~~~~~~~~~~~~~~~~~~~~~~~~~~~~~~~~~~~~~~~~~~~~~~~~~~~~~~~~~~~~~~~~~~
ENTREN A LA PAGINA DE MI 
Echenos porras!!!
~~~~~~~~~~~~~~~~~~~~~~~~~~~~~~~~~~~~~~~~~~~~~~~~~~~~~~~~~~~~~~~~~~~~~~~~~~~~~~~~~~

0:02
G|--------------------------------------------|
D|--------------------------------------------|
A|------3-5--6-5-3-----------3-5-(6)~--6-(6)--|x 2
E|--3-5------------5---5-3-5------------------|
()son tonos arriba...no les hagas caso
~~~~~~~~~~~~~~~~~~~~~~~~~~~~~~~~~~~~~~~~~~~~~~~~~~~~~~~~~~~~~~~~~~~~~~~~~~~~~~~~~~~
0:13
G|---------------------------|
D|---------------------------|
A|---------------------------|x 4
E|-5-5---0-2-3-3--3-5-3-2-0--|
~~~~~~~~~~~~~~~~~~~~~~~~~~~~~~~~~~~~~~~~~~~~~~~~~~~~~~~~~~~~~~~~~~~~~~~~~~~~~~~~~~~
Verso 1
0:24
G|-----------------------------|  |----------------|
D|-----------------------------|  |----------------|
A|-----------------------------|x4|----------------|
E|-5-5---0-2-3-3--3-5-3-2-0----|  |-/5555555555555-|
~~~~~~~~~~~~~~~~~~~~~~~~~~~~~~~~~~~~~~~~~~~~~~~~~~~~~~~~~~~~~~~~~~~~~~~~~~~~~~~~~~~
0:46
G|-----------------------------------|
D|-----------------------------------|
A|------3-5--6-5-3-----------3-5-6~--|x3
E|--3-5------------5---5-3-5---------|

~~~~~~~~~~~~~~~~~~~~~~~~~~~~~~~~~~~~~~~~~~~~~~~~~~~~~~~~~~~~~~~~~~~~~~~~~~~~~~~~~~~
1:03                          
G|-----------------------------|  |---|
D|-----------------------------|  |---|
A|-----------------------------|x3|---|
E|---5-5---0-2-3-3--3-5-3-2-0--|  |-5-|
~~~~~~~~~~~~~~~~~~~~~~~~~~~~~~~~~~~~~~~~~~~~~~~~~~~~~~~~~~~~~~~~~~~~~~~~~~~~~~~~~~~
1:14
G|--------------------|
D|--------------------|
A|--------------------|
E|--55555555555555555-|
 'Todo con exceso, nada con medida'
~~~~~~~~~~~~~~~~~~~~~~~~~~~~~~~~~~~~~~~~~~~~~~~~~~~~~~~~~~~~~~~~~~~~~~~~~~~~~~~~~~~
1:37
G|---------------------------|------------------------|--------------------------|------------5*--|*harmonicos
D|---------------------------|------------------------|--------------------------|-------------5*-|
A|---------------------------|------------------------|--------------------------|----------------|
E|--5-5---0-2-3-3--3-5-3-2-0-|-5-5---0-2-3--5-5-5-3-2-|-5-5---0-2-3-3--3-5-3-2-0-|5-5--0-2-3------|
~~~~~~~~~~~~~~~~~~~~~~~~~~~~~~~~~~~~~~~~~~~~~~~~~~~~~~~~~~~~~~~~~~~~~~~~~~~~~~~~~~~
1:48
G|-----------------------------------|
D|-----------------------------------|
A|------3-5--6-5-3-----------3-5-6~--|x4
E|--3-5------------5---5-3-5---------|
~~~~~~~~~~~~~~~~~~~~~~~~~~~~~~~~~~~~~~~~~~~~~~~~~~~~~~~~~~~~~~~~~~~~~~~~~~~~~~~~~~~
2:10
G|--------------|
D|--------------|
A|--------------|
E|--5-5---0-2-3-|
~~~~~~~~~~~~~~~~~~~~~~~~~~~~~~~~~~~~~~~~~~~~~~~~~~~~~~~~~~~~~~~~~~~~~~~~~~~~~~~~~~~
2:20
G|---------------------------|
D|---------------------------|
A|---------------------------|x 4
E|-5-5---0-2-3-3--3-5-3-2-0--|
~~~~~~~~~~~~~~~~~~~~~~~~~~~~~~~~~~~~~~~~~~~~~~~~~~~~~~~~~~~~~~~~~~~~~~~~~~~~~~~~~~~
2:31
G|----------------------------------------------------|
D|999-777-666-----------------------------------------|
A|------------999-7777--5-5-5-444---------------------|
E|--------------------------------777-555--0-3-4-0~~~-|
~~~~~~~~~~~~~~~~~~~~~~~~~~~~~~~~~~~~~~~~~~~~~~~~~~~~~~~~~~~~~~~~~~~~~~~~~~~~~~~~~~~
G|------|
D|------|
A|------|
E|-///0-|

~~~~~~~~~~~~~~~~~~~~~~~~~~~~~~~~~~~~~~~~~~~~~~~~~~~~~~~~~~~~~~~~~~~~~~~~~~~~~~~~~~~~~~~~~~~~~~~~~~~~~~~~~~~~~~~~~~~~~~~~~~~~
Y ahí esta...facilona....ya saben, si quieren alguna rolilla no duden en escribirme
    el_ojeda25@
Suggest correction
Give kudos to tab author, rate the tab!
1 2 3 4 5
comments
print report bad tab
guest
You may want to rate the tab now too:
select rating
Wanna post a correction for this tab? Suggest correction