Oops, an error
Loading. Please wait.

Guardaespaldas Tab

320 views 6 this week
no commentswrite comment
1 2 3 4 5
3 more votes to show rating
add to favorites
launch autoscroll
font size
0
reset
how to read this tab
guitar tuner
Autoscroll
slow
fast
+/-
esc
set tempo
stop
Help us to improve Ultimate-Guitar.com Take our survey!
×
Aquí les dejo esta tablatura cualquier duda o comentario
manden un correo a: zoxis_765@ y con gusto les contestare

El acorde B no estoy muy seguro si hay una variable,
solo toquenlo así
    B
e|-------
B|-------
G|---4---
D|---4---
A|---2---
E|-------

De los demas toquenlos con cejilla y se escuchara bien

"La genitalia es amor
para toda la gente
queremos paz en nuestro país
aireh yah rastafarai"

Cm                  G#
Quiero ser tu guardaespaldas
   G                Cm
quiero ser tu protector
                     G#
tengo mi chaleco antibalas
        G          Cm
por si pasa lo peor
                        G#
asi que corten cartucho y apunten
             G          Cm
directo a mi corazón

que si no muero de balas
       G#
muero de locura
     G            G#
o muero en alcohol
                            G    G#
sabes que dicen cosas malas de mi
G#
y todo es cierto
  B          Cm
tu sabes que me perdí.

CORO
          G#            G
Soy el smog de la ciudad
          B                Cm
tu eres el aire puro del mar
          G#            G
eres medicina para sanar
          B                Cm
eres mi pastilla de enamorar.


G# G B Cm x2


   G#          G
Y lo acepto soy culpable
Cm
siempre he sido un loco pero un loco amable
    G#          G
y es mas fácil junto a ti
Cm
enfrentar a la vida empezar a cambiar
   G#          G
el futuro del planeta
Cm
todos juntos unidos buscando respuestas
     G#                G                     Cm
que muevan montañas que lluevan montones de ideas
                                  G#
que abran los ojos y cambien al mundo
                 G
por mas de un segundo
                Cm
palabras prohibidas
                  G# G Cm
que cambian el rumbo
que cambian el rumbo.


CORO


SOLO

 e |-----------------------------------|
 B |--4--3-----------------------------|
 G |--------5--3--5~~---5--3-----------|
 D |--------------------------5--3--5~~|
 A |-----------------------------------|
 E |-----------------------------------|

 e |--------------10-13-11-10-11-10------------|
 B |-----------11-------------------13-11/13~~-|
 G |--12----12---------------------------------|
 D |-----12------------------------------------|
 A |-------------------------------------------|
 E |-------------------------------------------|

 e |----------------------------------------|
 B |--4--3----------------------------------|
 G |--------5--3--5--3--5~---5--3-----------|
 D |-------------------------------5--3--5~~|
 A |----------------------------------------|
 E |----------------------------------------|

 e |--15-13----------------------------|
 B |--------16-15-16-15-13----13-------|
 G |-----------------------15----12~~--|
 D |-----------------------------------|
 A |-----------------------------------|
 E |-----------------------------------|


  G|-----8~/12~/10~/7-----
Sabes que dicen cosa malas de mi

y todo es cierto
  B          Cm
tu sabes que me perdí.


CORO X3

OUTRO G# G B Cm x3  G# G Cm
Suggest correction
Give kudos to tab author, rate the tab!
1 2 3 4 5
comments
print report bad tab
guest
You may want to rate the tab now too:
select rating
Wanna post a correction for this tab? Suggest correction