Oops, an error
Loading. Please wait.

Hacerlo Bien Tab

3 views 1 this week
no commentswrite comment
1 2 3 4 5
3 more votes to show rating
add to favorites
launch autoscroll
font size
0
reset
how to read this tab
guitar tuner
Autoscroll
slow
fast
+/-
esc
set tempo
stop
Help us to improve Ultimate-Guitar.com Take our survey!
×
Ahi les va la tablatura de esta canción que está muy fácil y muy padre.

INTRO:
E|-----------------------------------------|
A|2-2-2-2-2-1-1-1-1-1-2-2-2-2-2------------|
D|-----------------------------------------|
G|-----------------------------------------|
B|-----------------------------------------|
E|-----------------------------------------|(X2)

Verso:
E|-----------------------------------------|
A|2-2-2-2-2-1-1-1-1-1-2-2-2-2-2------------|
D|4-4-4-4-4-3-3-3-3-3-4-4-4-4-4------------|
G|-----------------------------------------|
B|--------------------------------11-12----|
E|--------------------------------------11-|

 Coro:
E|---------------------------------0-----0-|
A|2-2-2-2-2-1-1-1-1-1-2-2-2-2-2----2-1-1-2-|
D|4-4-4-4-4-3-3-3-3-3-4-4-4-4-4------3-3---|
G|-----------------------------------------|
B|-----------------------------------------|
E|-----------------------------------------|


E|---------------------------------0-------|
A|2-2-2-2-2-1-1-1-1-1-2-2-2-2-2----2-------|
D|4-4-4-4-4-3-3-3-3-3-4-4-4-4-4----------2-|
G|---------------------------------------4-|
B|-----------------------------------------|
E|-----------------------------------------|


...Salir, conocer, poner de tu parte...
   
E|0----------------------------3----2----5-|
A|2----------------------------5----4----7-|
D|-----------------------------------------|
G|-----------------------------------------|
B|-----------------------------------------|
E|-----------------------------------------|

Aqui va con ritmo.
E|0-0-0-0-0-0-0-0-0-0-0-0-0-0--3----2----5-|
A|2-2-2-2-2-2-2-2-2-2-2-2-2-2--5----4----7-|
D|-----------------------------------------|
G|-----------------------------------------|
B|-----------------------------------------|
E|-----------------------------------------|(X2)


VERSO,  CORO  Y FIN.

SaLuDo a ToDaS lAs BaNdAs LoCaLeS dE sAlTiLlO.
FXZ
Suggest correction
Give kudos to tab author, rate the tab!
1 2 3 4 5
comments
print report bad tab
guest
You may want to rate the tab now too:
select rating
Wanna post a correction for this tab? Suggest correction