Oops, an error
Loading. Please wait.

Otra Vez Bass Tab

version 1
version 1

Whole song

Interactive

32 views 1 this week
no commentswrite comment
1 2 3 4 5
3 more votes to show rating
add to favorites
launch autoscroll
font size
0
reset
guitar tuner
×
Best way to learn
"Otra Vez"
Autoscroll
slow
fast
+/-
esc
set tempo
stop
Esta rola va dedicada a mi ex, que de pretexto puso que no
la dejan andar conmigo... creen eso posible?
En mi opinion es la mejor rola del disco

g---------------------------0-2-0-1-2---0-2-0-1-2--------
d---0-2-0-1-2---0-2-0-1-2--------------------------------
a-------------------------0-----------0------------------
e-0-----------0------------------------------------------

g---------------------------0-2-0-1-2---0-2-0-1-2--------
d---0-2-0-1-2---0-2-0-1-2--------------------------------
a-------------------------0-----------0------------------
e-0-----------0------------------------------------------

No vuelvo a tomar como lo hice ayer
espero recordar algo esta vez... pero aqui estoy otra vez
Disculpeme oficial ¿como le puedo hacer?
yo le prometo que no lo vuelvo a hacer... pero aqui estoy otra vez
No vuelvo a meterme en tu habitación
y acostarme contigo sin protección... pero aqui estoy otra vez
pero aqui estoy otra vez, pero aqui estoy otra vez

Aqui me tienes otravez, como vez, como toda la gente
sonriente, caliente, y que no se arrepiente
Aqui me tienes otravez, como vez, como toda la gente
sonriente, caliente, y que no se arrepiente

Yo se que estuve malno vuelvo a faltar
de este trabajo no me correran, pero aqui estoy otra vez
No vuelvo a fingir que me la paso bien
que me dio mucho gusto poderte conocer, pero aqui estoy otra vez
No se si estuve bien o estuve mal
y quizas jamas lo podre olvidar, pero aqui estoy otra vez
pero aqui estoy otra vez

Aqui me tienes otra vez...
Suggest correction
Give kudos to tab author, rate the tab!
1 2 3 4 5
comments
print report bad tab
guest
You may want to rate the tab now too:
select rating
Wanna post a correction for this tab? Suggest correction