Oops, an error
Loading. Please wait.

Prendelo Bass Tab

version 1
version 1

Whole song

Interactive

24 views 1 this week
no commentswrite comment
1 2 3 4 5
3 more votes to show rating
add to favorites
launch autoscroll
font size
0
reset
guitar tuner
Autoscroll
slow
fast
+/-
esc
set tempo
stop
Help us to improve Ultimate-Guitar.com Take our survey!
×
intro(x1)
1---------------------------
2---------------------------
3-333333--------------------
4--------555555-666666-11111

1--------------------------
2--------------------------
3-3333333
4---------555555-6-5-3--1111

verso(x2)
1---------------------------
2---------------------------
3--3-3-3-3------------5-----
4----------5--3-3-3-3-------

1-----------------------------
2-----------------------------
3-----------------------------
4-1111111-333333-111111-333333

coro(x4)
1---------------------------
2---------------------------
3-333333--------------------
4--------555555-666666-11111

1--------------------------
2--------------------------
3-3333333------------------
4---------555555-6-5-3--1111

final
1-----------------------------------
2-----------------------------------
3-33333-----------------------------
4------55555-6-5-3-11111-6-5-3-11111
Suggest correction
Give kudos to tab author, rate the tab!
1 2 3 4 5
comments
print report bad tab
guest
You may want to rate the tab now too:
select rating
Wanna post a correction for this tab? Suggest correction