Oops, an error
Loading. Please wait.

Prendelo Tab

version 1
version 1

Whole song

Interactive

32 views 6 this week
no commentswrite comment
1 2 3 4 5
3 more votes to show rating
add to favorites
launch autoscroll
font size
0
reset
how to read this tab
guitar tuner
×
Best way to learn
"Prendelo"
Autoscroll
slow
fast
+/-
esc
set tempo
stop
Esta es mi primera transcripción 
y se le dedico a mi cuate el quibrera el vidrio el  
rareza el peña a tania y susana.


INTRO 

   D UDU  D UUDU  D UDUDD  DDUD     D UDU D UUDU   
e------------------------------------------------------------
b------------------------------------------------------------
g--7-777--4-4444--5-55555-----------7-777--4-4444--5-4-0-----
D--7-777--4-4444--5-55555--5555-----7-777--4-4444--5-4-0-5---
A--5-555--2-2222--3-33333--5555-----5-555--2-2222--3-2-0-5---
E--------------------------3333--------------------------3---


DISTORCIÓN

   D UDU  D UUDU  D UDUDD  DDUD     D UDU D UUDU   
e------------------------------------------------------------
b------------------------------------------------------------
g--7-777--4-4444--5-55555-----------7-777--4-4444--5-4-0-----
D--7-777--4-4444--5-55555--5555-----7-777--4-4444--5-4-0-5---
A--5-555--2-2222--3-33333--5555-----5-555--2-2222--3-2-0-5---
E--------------------------3333--------------------------3---

VERSO

e--------------------------------------
b--------------------------------------
g--------------------------------------  x2
D--5-5-5-5-5-5-------7-7-7-7-7-7-------
A--5-5-5-5-5-5-------7-7-7-7-7-7-------
E--3-3-3-3-3-3-------5-5-5-5-5-5-------


e----------------------------
b----------------------------
g----------------------------  x2
D--55555-5-----77777-7-------
A--55555-5-----77777-7-------
E--33333-3-----55555-5-------


coro
e-------------------------------------
b-------------------------------------
g--7------4---44---5555---------------  x2
D--7------4---44---5555---555---------
A--5------2---22---3333---555---------
E-------------------------333---------


   D UDU  D UUDU  D UDUDD  DDUD     D UDU D UUDU   
e------------------------------------------------------------
b------------------------------------------------------------
g--7-777--4-4444--5-55555-----------7-777--4-4444--5-4-0-----
D--7-777--4-4444--5-55555--5555-----7-777--4-4444--5-4-0-5---
A--5-555--2-2222--3-33333--5555-----5-555--2-2222--3-2-0-5---
E--------------------------3333--------------------------3---


cualquier sugerencia o duda escribanme  alllejandro @
Suggest correction
Give kudos to tab author, rate the tab!
1 2 3 4 5
comments
print report bad tab
guest
You may want to rate the tab now too:
select rating
Wanna post a correction for this tab? Suggest correction