Oops, an error
Loading. Please wait.

Prendelo Tab

version 2
version 2

Whole song

Interactive

29 views 3 this week
no commentswrite comment
1 2 3 4 5
3 more votes to show rating
add to favorites
×
Save as Personal and add changes to this tab that will be seen only by you. Learn more ›
×
You can save this tab as Personal to edit and correct it or add notes. All changes will be seen only by you. Learn more »
save as personal
new!
launch autoscroll
font size
0
reset
how to read this tab
guitar tuner
Autoscroll
slow
fast
+/-
esc
set tempo
stop
Que onda, esta es mi primera colaboracion aquí en el atame y espero
que les agrade por que esta muy bien elaborada, es un rolonon de
genitallica y hay les va:

intro:

ligth disrtortion

e---2--2--2---2---2--2--2--2--2--2---0--0--0---3---3--3--3--3--3--3
B---3--3--3---3---3--3--3--3--3--3---1--1--1---0---0--0--0--0--0--0
G---2--2--2---4---4--4--4--4--4--4---0--0--0---0---0--0--0--0--0--0
D---0--0--0---4---4--4--4--4--4--4---2--2--2---0---0--0--0--0--0--0
A-------------2---2--2--2--2--2--2---3--3--3---2---2--2--2--2--2--2
E-------------2---2--2--2--2--2--2---3--3--3---3---3--3--3--3--3--3

continuacion

e---2--2--2---2---2--2--2--2--2--2---0--0---3--3---3--3--3--3--3--3
B---3--3--3---3---3--3--3--3--3--3---1--1---0--0---0--0--0--0--0--0
G---2--2--2---4---4--4--4--4--4--4---0--0---0--0---0--0--0--0--0--0
D---0--0--0---4---4--4--4--4--4--4---2--2---0--0---0--0--0--0--0--0
A-------------2---2--2--2--2--2--2---3--3---2--2---2--2--2--2--2--2
E-------------2---2--2--2--2--2--2---3--3---3--3---3--3--3--3--3--3


w/distortion

e------------------------
B------------------------
G------------------------
D--7--7--4--4--4--5--5---
A--5--5--2--2--2--3--3--5
E-----------------------3

continuacion 

e---------------------------
B---------------------------
G---------------------------
D--7--7--4--4--4--5--5------
A--5--5--2--2--2--3--3--5--5
E-----------------------3--3

versos:

e------------------------------------------------------------------------
B------------------------------------------------------------------------
G------------------------------------------------------------------------
D--7--7--7--7--7--7--4--4--4--4--4--4--5--5--5--5--5--5------------------
A--5--5--5--5--5--5--2--2--2--2--2--2--3--3--3--3--3--3--5--5--5--5--5--5
E--------------------------------------------------------3--3--3--3--3--3

pre-coro

desde norte hasta el sur

e------------------------------------------------
B------------------------------------------------
G------------------------------------------------
D--7--7--7--7--7--7--7--7--4--4--4--4--4--4--4--4
A--5--5--5--5--5--5--5--5--2--2--2--2--2--2--2--2
E------------------------------------------------

e------------------------------------------------
B------------------------------------------------
G------------------------------------------------
D--5--5--5--5--5--5--5--5------------------------
A--3--3--3--3--3--3--3--3--5--5--5--5--5--5--5--5
E--------------------------3--3--3--3--3--3--3--3


coro:

w/distortion

e-------------------
B-------------------
G-------------------
D--7----4----5--5---
A--5----2----3--3--5
E------------------3


e---------------------------
B---------------------------
G---------------------------
D--7--7--4--4--4--5--5------
A--5--5--2--2--2--3--3--5--5
E-----------------------3--3


e------------------------
B------------------------
G------------------------
D--7--7--4--4--4--5--5---
A--5--5--2--2--2--3--3--5
E-----------------------3


e---------------------------
B---------------------------
G---------------------------
D--7--7--4--4--4--5--5------
A--5--5--2--2--2--3--3--5--5
E-----------------------3--3


2nd verso:

e------------------------------------------------------------------------
B------------------------------------------------------------------------
G------------------------------------------------------------------------
D--7--7--7--7--7--7--4--4--4--4--4--4--5--5--5--5--5--5------------------
A--5--5--5--5--5--5--2--2--2--2--2--2--3--3--3--3--3--3--5--5--5--5--5--5
E--------------------------------------------------------3--3--3--3--3--3

pre-coro

desde norte hasta el sur

e------------------------------------------------
B------------------------------------------------
G------------------------------------------------
D--7--7--7--7--7--7--7--7--4--4--4--4--4--4--4--4
A--5--5--5--5--5--5--5--5--2--2--2--2--2--2--2--2
E------------------------------------------------

e------------------------------------------------
B------------------------------------------------
G------------------------------------------------
D--5--5--5--5--5--5--5--5------------------------
A--3--3--3--3--3--3--3--3--5--5--5--5--5--5--5--5
E--------------------------3--3--3--3--3--3--3--3


coro:

w/distortion

e-------------------
B-------------------
G-------------------
D--7----4----5--5---
A--5----2----3--3--5
E------------------3


e---------------------------
B---------------------------
G---------------------------
D--7--7--4--4--4--5--5------
A--5--5--2--2--2--3--3--5--5
E-----------------------3--3


e------------------------
B------------------------
G------------------------
D--7--7--4--4--4--5--5---
A--5--5--2--2--2--3--3--5
E-----------------------3


e---------------------------
B---------------------------
G---------------------------
D--7--7--4--4--4--5--5------
A--5--5--2--2--2--3--3--5--5
E-----------------------3--3


se repiten los coros y despues se termina asi

e---------------
B---------------
G---------------
D--4--5--5------
A--2--3--3--5--5
E-----------3--3


y despues cantan  'prendelo' y en eso se acaba asi


e-----
B-----
G-----
D--7/0
A--5/0
E-----

bueno eso es todo y ojala que saque mas rolas dudas comentarios 
o si nada mas quieren decirme algo este es mi correo  
eberhiler@ les mando un saludo a todos mis amigos 
del 2º3 vespertino de la preparatoria oficial nº 105. escribanme
Suggest correction
Give kudos to tab author, rate the tab!
1 2 3 4 5
comments
print report bad tab
guest
Wanna post a correction for this tab? Suggest correction