Oops, an error
Loading. Please wait.

Todos Tomados Bass

version 1
version 1

Whole song

Interactive

56 views 1 this week
no commentswrite comment
1 2 3 4 5
3 more votes to show rating
add to favorites
launch autoscroll
font size
0
reset
guitar tuner
×
Best way to learn
"Todos Tomados"
Autoscroll
slow
fast
+/-
esc
set tempo
stop
intro:

G:------------------
D:------------------
A:------------------
E:----0/12\0--------

coro 1:

G:-------------------------666-------8---8-------
D:------666--333-44-66-444-----4-666---6---------
A:--444----4-------------------------------------
E:-----------------------------------------------

coro 2:

G:-------------------------666-----6-------------
D:------666--333-44-66-444-----4-4---4-----------
A:--444----4-------------------------------------
E:-----------------------------------------------

verso:

G:-----------------------------------------------
D:-----------------------------------------------
A:-4444444444-3-33-------------------------------
E:-----------------2222222-4444444---------------

G:-----------------------------------------------
D:-----------------------------------------------
A:-44444-33333---------------------4-------------
E:-------------22222-44444-4/6h9p6---------------


G:-----------------------------------------------
D:-----------------------------------------------
A:-444444444444----------------------------------
E:--------------2222222-4444444------------------


puente:
                             ultima vez
G:-------------------------*---------------------
D:----------------44-3-----*---------------------
A:-444-------666--------6--*--4------------------
E:-----444-2---------------*---------------------

outro:

G:-----------------------------------------------
D:------------------44444444-66666666------------
A:-44444444444/9-8-------------------------------
E:-----------------------------------------------

ultima nota:(despues de 'queremos vomitarte')

G:---------------
D:---------------
A:----4----------
E:---------------


orden:

intro 
coro 1 
coro 2
verso
coro 1
coro 2
verso
coro 1 x2
puente x4
outro  x5
ultima nota
Suggest correction
Give kudos to tab author, rate the tab!
1 2 3 4 5
comments
print report bad tab
guest
You may want to rate the tab now too:
select rating
Wanna post a correction for this tab? Suggest correction