Oops, an error
Loading. Please wait.

Todos Tomados Tab

version 2
version 2

Whole song

Interactive

71 views 1 this week
no commentswrite comment
1 2 3 4 5
2 more votes to show rating
add to favorites
launch autoscroll
font size
0
reset
how to read this tab
guitar tuner
×
Best way to learn
"Todos Tomados"
Autoscroll
slow
fast
+/-
esc
set tempo
stop
. palm mutting

Coro

 (intro: 2 veces com p.m. y 2 sin p.m.)

E|--------------------------------------
B|--------------------------------------
G|--5-5-5-5-5-5-5-----------------------
D|--5-5-5-5-5-5-5--3-3-3-3-3--5-5-5-5-5-
A|--3-3-3-3-3-3-3--3-3-3-3-3--5-5-5-5-5-
E|-----------------1-1-1-1-1--3-3-3-3-3-

Versos
E|--------------------------------------
B|--------------------------------------
G|--5-5-5-5-5-5-5-----------------------
D|--5-5-5-5-5-5-5--3-3-3-3-3--5-5-5-5-5-
A|--3-3-3-3-3-3-3--3-3-3-3-3--5-5-5-5-5-
E|-----------------1-1-1-1-1--3-3-3-3-3-
    . . . . . . .  . . . . .  . . . . .

E|----------------------------------|-----|
B|------6-------5-------------------|-----|
G|------5-------4-------2-----------|--5--|
D|-3333-3--2222-2-------2--------5--|--5--|
A|-----------------0000-0--------5--|--3--|  
E|--------------------------3333-3--|-----|
   ....    ....    ....     ....
Segunda guitarra del solo

4 veces
E|-------------------------------------------|---|
B|-------------------------------------------|---|
G|-------------------------------------------|-5-|
D|---5-5-5----------------7-7-7--10-10--9-9--|-5-|
A|---3-3-3--7-7-7--5-5-5--5-5-5--8--8---7-7--|-3-|
E|----------5-5-5--3-3-3---------------------|---|
     . . .  . . .  . . .  . . .  .  .   . .

Solo

E|------------------------8--12--10h12p10p8-|
B|----------------------8-------------------|
G|-------------------9----------------------|
D|-10------------10-------------------------|
A|------------10----------------------------|
E|----8-8--8--------------------------------|
      . .  .
 
E|------8------------------------------|
B|--12------10h12-----------12p10------|
G|-----------------9----9-----------9--|
D|-------------------------------------|
A|-------------------------------------|
E|-------------------------------------|

					|3 veces|
E|--------1--0h1p0------------------|----------------|
B|--0--3------------3---1---0--1-1--|--6-5-3h5p3-----|
G|----------------------------------|------------5---|
D|----------------------------------|----------------|
A|----------------------------------|----------------|
E|----------------------------------|----------------|

E|---------------------|-------1--|
B|-6--5-3/1-0----------|------1---|
G|-------------2-0-----|-----0----|
D|-----------------3-2-|----2-----|
A|---------------------|---3------|
E|---------------------|----------|
	       . . . .     ....

E|-0-----0------------------------|
B|----3-----3p1p0h1p0-------------|
G|----------------------2--0------|
D|--------------------------------|
A|--------------------------------|
E|--------------------------------|

y...

EI--------------------------------------
BI--------------------------------------
GI--5-5-5-5-5-5-5-----------------------
DI--5-5-5-5-5-5-5--3-3-3-3-3--5-5-5-5-5-
AI--3-3-3-3-3-3-3--3-3-3-3-3--5-5-5-5-5-
EI-----------------1-1-1-1-1--3-3-3-3-3-

hasta el final

Chido
Suggest correction
Give kudos to tab author, rate the tab!
1 2 3 4 5
comments
print report bad tab
guest
You may want to rate the tab now too:
select rating
Wanna post a correction for this tab? Suggest correction