Oops, an error
Loading. Please wait.

Zorra Tab

178 views 1 this week
no commentswrite comment
1 2 3 4 5
2 more votes to show rating
add to favorites
launch autoscroll
font size
0
reset
how to read this tab
guitar tuner
Autoscroll
slow
fast
+/-
esc
set tempo
stop
INTRO : SAXOFON DESPUES VA ESTO

D        C       G        D
ESTOY ENAMORADO OTRA VEZ 
       C            G     D
NO ME INTENTES DETENER 
        C               G D     
ME GUSTA SU COLOR DE PIEL 
        C      
PERO NO DEJA DE SER UNA

parte 1
---------------------------------------------------------|
---------------------------------------------------------|
----4---------------7--9---------------------------------|
-5--4---XX-XX-------7--9---------------------------------|
-5--2---XX-XX-------5--7---------------------------------|
-3------XX-XX--------------------------------------------|
ZORRA¡¡           ZORRA¡¡ 


parte 2  
------------------------------------------------------|
------------------------------------------------------|
------------------------0-----------------------------|     8X
-----0-2-0---0--0-2-0---------------------------------|
-----------2----------2-------------------------------|
---0--------------------------------------------------|
Es una iniciativa sexual etc... no me se la letra bien asi que no la hagan de gas
parte 3
-----------------------------------------------------|
-----------------------------------------------------|
--7-7-5-5-5---4---------------7-7-5-5-5--------------| 2X
--7-7-5-5-5-5-4------------ --7-7-5-5-5-5-5-5--------|
--5-5-3-3-3-5-2----2-----2----5-5-3-3-3-5-5-5--------|
------------3----3---3-3---3------------3-3-3--------|
Estoy enamorado...              No me intentes detener ...

parte 4
------------------------------------------------------|
------------------------------------------------------|
------------------------------------------------------|
--3-3-3-3-3-/-2--2------------------------------------|
--3-3-3-3-3-/-2--2------------------------------------|
--5-5-5-5-5-/-4--0------------------------------------|
bien  bien 

se repite parte 2 solo una vez despues un CHIFLIDO y continua parte 2 8x
parte 3 y 4 
despues sigue el bajo y la bateria 
parte 1 
parte 3 y
termina en G (sol) con ¡¡¡¡¡¡¡¡¡bieeeennnnnnnnnnnn!!!!!!!!

pa no andarse con vueltas oigan la rola

saludos al Abel que siga organizando toquines en Dgo arriba grupo!!! PENISSILLINA¡¡¡
Suggest correction
Give kudos to tab author, rate the tab!
1 2 3 4 5
comments
print report bad tab
guest
Wanna post a correction for this tab? Suggest correction