Oops, an error
Loading. Please wait.

Funny Ways Tab

version 1
version 1

Whole song

Interactive

3,226 views 9 this week
no commentswrite comment
1 2 3 4 5
please rate
add to favorites
launch autoscroll
font size
0
reset
how to read this tab
guitar tuner
Autoscroll
slow
fast
+/-
esc
set tempo
stop
Help us to improve Ultimate-Guitar.com Take our survey!
×
Author
Difficulty
intermediate
HELLO, I HOPE YOU LIKE THIS TAB OF A SONG FROM MY FAVORITE GROUP WHICH I FIRST HEARD
ON THE ALBUM "PLAYING THE FOOL" IN 1980. FOR THE MOMENT A PART IS MISSING WHICH IS
WHEN THEY SING "GO YOUR OWN WAY OR WAIT FOR ME..." WHERE I THINK THEY PLAY FIRST D, B, A,
FOUR TIMES, AND THEN D, A, B TWICE. THEN D#, A#, C ALSO TWICE AND THEN D ONCE BEFORE GOING
 BACK TO THE INTRO LICK Emadd9, Cmaj7/E, ETC...HERE THE XYLOPHONE SOLO BEGINS. THEN COME
THE FINAL LYRICS (AND SO YOU SEE.....). DURING THE XYLOPHONE SOLO PLAY THE INTRO PART.
HOPEFULLY SOON I WILL COMPLETE THE TAB.  EK ONG KARR, SAT NAM!


    Emadd9    Cmaj7/E   E6    Cmaj7/E   Emadd9
E-----0--------0--------0--------0--------0----------------------------|
B-----0--------0--------0--------0--------0  This is played for intro--|
G-----0--------0--------0--------0--------0----------------------------|
D-----4--------5--------6--------5--------4----------------------------|     (PLAY 2 TIMES)
A-----2--------3--------4--------3--------2----------------------------|
E-----0--------0--------0--------0--------0----------------------------|

 HERE'S AN APROXIMATION OF WHAT THE VIOLIN PLAYS!

E-----X---7---10---7-------7---10---7-------------------------------|
B-----X---7---10---7---7---7---10---7---7---------------------------|
G-----0------------------------------------7---9---10---9---7-------|
D-----9----------------------------------------9---10---9---7---10--|
A-----9---------------------------------------------0-----------10--|
E-----0-------------------------------------------------------------|



E----------------|             (ALSO PLAY 2 TIMES)
B----------------|
G-----9---7---6--|
D-----9---7---7--|
A-------------0--|
E----------------|


    Emadd9
E-----0-----------------------0--------------------------0------------|
B-----0-----------------------0--------------------------7------------|
G-----0-----------------------9--------------------------7------------|
D-----4-----------------------7--------------------------0------------|
A-----2-----------------------0--------------------------0------------|
E-----0-----------------------0--------------------------0------------|
      SORRY TO HAVE BEEN   SO MUCH OF A BORE   BUT IN MY OWN FUNNY WAY


E--------0----------------0-----------------------------------------|
B--------0----------------0-----------------------------------------|
G--------0----------------0-----------------------------------------|
D--------5----------------4-----------------------------------------|
A--------3----------------2-----------------------------------------|
E--------0----------------0-----------------------------------------|
      I FIND I LEARN MUCH MORE....ETC...

FOR SECOND AND THIRD VERSES PLAY THE SAME AS THE FIRST VERSE


I GUESS THIS IS A BRIDGE:
      G         A#        D        F          E
E-----3---------6---------5---------8---------7--|
B-----3---------6---------7--------10---------9--|
G-----4---------7---------7--------10---------9--|
D-----5---------8---------7--------10---------9--|
A-----5---------8---------5---------8---------7--|
E-----3---------6---------5---------8---------7--|



       Dm
E------5-----------------|
B------6--------5--------|
G------7--------7-----7--|
D------7--------7-----7--|
A------5--------------5--|
E------5-----------------|
       MY       WAYS  ARE


      G         A#        D        F          E
E-----3---------6---------5---------8---------7--|
B-----3---------6---------7--------10---------9--|
G-----4---------7---------7--------10---------9--|
D-----5---------8---------7--------10---------9--|
A-----5---------8---------5---------8---------7--|
E-----3---------6---------5---------8---------7--|
   STRANGE!


       Dm
E------5-----------------|
B------6--------5--------|
G------7--------7-----7--|
D------7--------7-----7--|
A------5--------------5--|
E------5-----------------|
       THEY'LL  NE____VER


       Eb         A#           Eb       A#          Eb    A#
E------6----------6------------6--------6-----------6-----6---------|
B------8----------6------------8--------6-----------8-----6---------|
G------8----------7------------8--------7-----------8-----7---------|
D------8----------8------------8--------8-----------8-----8---------|
A------6----------8------------6--------8-----------6-----8---------|
E------6----------6------------6--------6-----------6-----6---------|
      CHANGE,            THEY STAY         STRANGE WAYS


I'm sorry to have been so much of a bore
But in my own funny way I find I learn much more.
I realise what you think from your eyes,
But in your own funny ways I find I learn much more.

My ways are strange
They'll never change
They stay, strange ways

I'm sorry to have been so close from the start,
But for all that I cared we could be miles apart.
I understood that you never would
Understand a way of life that I never could.

My ways are strange
They'll never change
They stay, strange ways

Go your own way or wait for me
Go your own way or wait for me
Go your own way or wait for me
Go your own way or wait for me

And so you see what happened to me
Since the time when I judged my life in nights and days
I realised that my life was lies
So you see what I mean with all my funny ways.
I'm sorry to have been so much of a bore
But in my own funny way I find I learn much more
Funny ways, Funny ways, Funny ways, Funny ways.
Suggest correction
Give kudos to tab author, rate the tab!
1 2 3 4 5
comments
print report bad tab
guest
You may want to rate the tab now too:
select rating
Please do not post tabs as comments. Select "correction" instead!