Oops, an error
Loading. Please wait.

Natural Born Loser Tab

7 views 1 this week
no commentswrite comment
1 2 3 4 5
2 more votes to show rating
add to favorites
launch autoscroll
font size
0
reset
how to read this tab
guitar tuner
Autoscroll
slow
fast
+/-
esc
set tempo
stop
Help us to improve Ultimate-Guitar.com Take our survey!
×
Author
Difficulty
intermediate
[Intro] (16 bars)
e|---------------------------------------------------------------------------|
B|---------------------------------------------------------------------------|
G|---------------------------------------------------------------------------|
D|-0h2--0-2-0-2-5~--2--0-2-0------2--0-2-0-----------------------------------| Guitar 1 (all 16 bars)
A|---------------------------------------------------------------------------|
E|---------------------------3-0-----------3-2-1-0---------------------------|

e|---------------------------------------------------------------------------|
B|---------------------------------------------------------------------------|
G|--------------4~-----------4-------------4---------------------------------| Guitar 2 (bars 5-16)
D|---6--5-6-5-6-----6--5-6-5---6--6--5-6-5---8-7-6---------------------------|
A|---------------------------------------------------------------------------|
E|---------------------------------------------------------------------------|

e|---------------------------------------------------------------------------|
B|--------------8~-----------------------------------------------------------|
G|---9--7-9-7-9-----9--7-9-7------9--7-9-7-----------------------------------| Guitar 3 (bars 9-16)
D|---------------------------5-----------------------------------------------|
A|-----------------------------7-----------10-9-8-7--------------------------|
E|---------------------------------------------------------------------------|

[Verse]
e|---------------------------------------------------------------------------|
B|-----------------------------------------------------8---------------------|
G|-9---7---7---9---9---7---9---9---7-9-----/9--7-9-7-9---7/9-----------------| Rhythm
D|-9---5---9---9---9---5---7---9---5-7-------------------5/7---5-7-----------|
A|-7-----------7---7-----------7-------------------------------5-7-----------|
E|-------------------------------------------------------------3-5-----------|

[Chorus] (8 bars)
e|---------------------------------------------------------------------------|
B|---------------------------------------------------------------------------|
G|---------------------------------------------------------------------------|
D|-0h2--0-2-0-2-5~--2--0-2-0------2--0-2-0-----------------------------------| Guitar 1 (all 8 bars)
A|---------------------------------------------------------------------------|
E|---------------------------3-0-----------3-2-1-0---------------------------|

e|---------------------------------------------------------------------------|
B|---------------------------------------------------------------------------|
G|--------------4~-----------4-------------4---------------------------------| Guitar 2 (bars 5-8)
D|---6--5-6-5-6-----6--5-6-5---6--6--5-6-5---8-7-6---------------------------|
A|---------------------------------------------------------------------------|
E|---------------------------------------------------------------------------|

e|---------------------------------------------------------------------------|
B|--------------8~-----------------------------------------------------------|
G|---9--7-9-7-9-----9--7-9-7------9--7-9-7-----------------------------------| Guitar 3 (bars 5-8)
D|---------------------------5-----------------------------------------------|
A|-----------------------------7-----------10-9-8-7--------------------------|
E|---------------------------------------------------------------------------|

[Bridge]
e|---------------------------------------------------------------------------|
B|---------------------------------------------------------------------------|
G|-7/9-------11------7-------4------------7----------------------------------|
D|-5/7-------9-------7-------4-------7-9--7----------------------------------|
A|-------------------5-------2-------7-9--5----------------------------------|
E|-----------------------------------5-7-------------------------------------|

(There's a lick that occurs sometimes during the verse, which goes like so)

e|---------------------------------------------------------------------------|
B|---------------------------------------------------------------------------|
G|---------------------------------------------------------------------------|
D|---------------------------------------------------------------------------|
A|-----5---------------------------------------------------------------------|
E|-5/7----7-5\3-0------------------------------------------------------------|



************************************

| h  Hammer-on
| ~  Vibrato
| /  Slide up
| \  Slide down 

************************************
Suggest correction
Give kudos to tab author, rate the tab!
1 2 3 4 5
comments
print report bad tab
guest
You may want to rate the tab now too:
select rating
Wanna post a correction for this tab? Suggest correction