Oops, an error
Loading. Please wait.

Lipstick Promises Tab

779 views 3 this week
no commentswrite comment
1 2 3 4 5
please rate
add to favorites
launch autoscroll
font size
0
reset
how to read this tab
guitar tuner
Tab Pro tools
  • play this tab
  • loop segment
  • change instrument
  • show fretboard
  • metronome
Autoscroll
slow
fast
+/-
esc
set tempo
stop
Contributor
"Lipstick Promises"
George Ducas
CD:George Ducas
Track 5

Tabbed by Neil Crane

fill 1
Dm        A
-9-10-9-7-9-|
------------|
-9-10-9-7-9-|
------------|
------------|
------------|

fill 2
A       F#m  A      F#m
----------7--------------|
-------------------------|
--6-9-6-9-------9---6-9--|
------------------7------|
-------------------------|
-------------------------|

fill 3
Dm             A
-9-10-12-12/13-9-|
-----------------|
-9-10-12-12/14-9-|
-----------------|
-----------------|
-----------------|
************************

intro 
---------0--------------0---------------0--------------0-------|
-------3---3----------3---3-----------3---3----------3---3-----|
-----6-------6------6-------6-------6-------6------6-------6---|
---5-----------5--5-----------5---4-----------4--4-----------4-| (2x)
-0------------------------------0------------------------------|
---------------------------------------------------------------|

A     E   F#m   E    D      E   D      E
--------7---------7----------------------|
-----------------------------------------|
--9-6-9-----9-6-9-----9-7-6--------6-9---|
----------------------------9----7-----9-|
-----------------------------------------|
-----------------------------------------|

A        F#m      E              D 
You told me I was all you'd ever need 
    A       F#m         E          D 
You said my love would always be enough 
             F#m          E    D                  Dm 
Your scarlet kisses on my skin fooled me till the end 

 
A       E               F#m         E                  D              E            F#m  Dm *fill 1
  Every single word you said, every drop dead shade of red were just lipstick promises 
A       E          F#m               E         D 
  Was I easy to deceive? You were so easy to believe 
       E              D              E             A  F#m  A  F#m *fill 2 (starts on 1st A)
I fell for your every kiss and your lipstick promises 
 
A            F#m    E                D 
Since you've gone I see where I went wrong 
A         F#m  E               D 
All  your lies somehow left me blind 
         F#m                E        D            Dm
What you said would last so long was only painted on 


A       E               F#m         E                  D              E            F#m  Dm *fill 3
  Every single word you said, every drop dead shade of red were just lipstick promises 
A       E          F#m               E         D 
  Was I easy to deceive? You were so easy to believe 
       E              D              E                  
I fell for your every kiss and your lipstick promises 

A     E   F#m   E    D      E   D      E
--------7---------7----------------------|
-----------------------------------------|
--9-6-9-----9-6-9-----9-7-6--------6-9---|
----------------------------9----7-----9-|
-----------------------------------------|
-----------------------------------------|

A       E          F#m               E         D 
  Was I easy to deceive? You were so easy to believe 
       E              D              E                  
I fell for your every kiss and your lipstick promises 
 
A      E               F#m           E                D 
 Every single word you said, every drop dead shade of red 
           E            D          E        
Were just lipstick promises, just lipstick promises 

A     E   F#m   E    D      E   D      E
--------7---------7----------------------|
-----------------------------------------|
--9-6-9-----9-6-9-----9-7-6--------6-9---|  (fade out)
----------------------------9----7-----9-|
-----------------------------------------|
-----------------------------------------|

 
comments
We did not receive enough feedback on this tab! Please rate:
print report bad tab
1 2 3 4 5
I want to post or [tab]
guest
You may want to rate the tab now too:
select rating
Please do not post tabs as comments. Select "correction" instead!