Oops, an error
Loading. Please wait.

Angry Hill tab

version 1
version 1

Whole song

  • This tab covers the live version of the song (http... Show more
2,718 views 3 this week
no commentswrite comment
1 2 3 4 5
x 5
add to favorites
×
Save as Personal and add changes to this tab that will be seen only by you. Learn more ›
×
You can save this tab as Personal to edit and correct it or add notes. All changes will be seen only by you. Learn more »
launch autoscroll
font size
0
reset
how to read this tab
guitar tuner
edit
Autoscroll
slow
fast
+/-
esc
set tempo
stop
-------------------------------------------------------------------------------
                             Angry Hill - George Ezra (album version)
-------------------------------------------------------------------------------
Tabbed by: Maemaeva
E-mail: ptitmava@hotmail.fr

Tuning: Standard - CAPO 3

4 chords : C, G (330003) and G (300023) and D.

George is using a basic arpeggio but it's not as easy as u think haha! Good luck ;)



Intro

e|----0----------0-------0---------0-------3----------3-------3----------3-----------|
B|-------1---------1--------1--------1--------0---------0---------0--------0---------|
G|---------0---------0--------0--------0--------0---------0---------0--------0-------|   x2
D|-----------2------------------2----------------------------------------------------|
A|----3------------------3------------------------2--------------------0-------------|
E|-----------------------------------------3------------------2----------------------|

e|----0----------0--------2----------2------3~----------------------------------|
B|-------1---------1---------0---------0----------------------------------------|
G|---------0-------------------0------------------------------------------------|
D|-----------2-------------------2----------------------------------------------|
A|----3-------------------3-----------------3~----------------------------------|
E|------------------------------------------------------------------------------|

e|----3--3-----2~----------------|
B|-------------------------------|
G|-------------------------------|
D|-------------0~----------------|
A|----3--3-----------------------|
E|-------------------------------|


e|--------0----------0-------0---------0-------3-----------3----------3---------3-----------|
B|----------------------1----------------1---------0-----------0--------0---------0---------|
G|----------------0-------0----------0-----0---------0------------0-------0---------0-------| x2
D|------------0h2-----------------0h2-------------------------------------------------------|
A|--------3------------------3--------------------------2--------------------0--------------|
E|---------------------------------------------3----------------------2---------------------|



e|----0----------0--------2----------2------3~---3--3---2~----------------------------|
B|-------1---------1---------0---------0----------------------------------------------|
G|---------0-------------------0------------------------------------------------------|
D|-----------2-------------------2----------------------------------------------------|
A|----3-------------------3-----------------3~---3--3---0~----------------------------|
E|------------------------------------------------------------------------------------|


Verse (he makes chords rings) 

C                    G (330003) and G (300023)
  He reads yesterday's news,
C                    G (330003) and G (300023)
 Cause today's just scares him.
C                    G (330003) and G (300023)
 Thinks of yesterday's blues,
C                    G (330003) and G (300023)
 Cause today's are just far too grim.

                   

e|--------0----------0--------2----------2------3~--3--3---2~-----------------------|
B|-----------1---------1---------0---------0----------------------------------------|
G|-------------0-------------------0------------------------------------------------|
D|---------------2-------------------2---------------------0~-----------------------|
A|--------3-------------------3-----------------3~--3--3----------------------------|
E|----------------------------------------------------------------------------------|
  And it grows,                                     on it grows.

The rest of the verses is like the intro.


Chorus


e|--2---------2-----0--------0---------3--------3----------3------------3-----------|
B|-----0--------0-------1------1----------0---------0---------0------------0--------|
G|-------0---------------0------------------0--------0---------0------------0-------| x4 
D|---------2---------------2--------------------------------------------------------|
A|--3---------------3-------------------------2-------------------0-----------------|
E|-------------------------------------3-------------------2------------------------|


e|--------0----------0--------2----------2------3~--3--3---2~-----------------------|
B|-----------1---------1---------0---------0----------------------------------------|
G|-------------0-------------------0------------------------------------------------|
D|---------------2-------------------2---------------------0~-----------------------|
A|--------3-------------------3-----------------3~--3--3----------------------------|
E|----------------------------------------------------------------------------------|
  And it grows,                                     on it grows.



Bridge is like the verse so like the intro.

At the end of the song, he stops playing with arpeggio and makes simple chords : C, G (330003) and G (300023).



Enjoy!! It's an amazing song!!



************************************

| /   slide up
| \   slide down
| h   hammer-on
| p   pull-off
| ~   vibrato
| +   harmonic
| x   Mute note
| b   Bend
| pb  Pre-bend
| br  Bend release
| pbr Pre-bend release
| brb Bend release bend

************************************

            
            
Suggest correction
Creating personal tab
Creating personal tab
You can edit any tab online and save it as your Personal.

You can edit, replace or remove any tab part or add personal notes – all changes will be seen only by you.

Personal tabs can be accessed anytime from any device, even offline.
Learn more »
comments
print report bad tab
guest
You may want to rate the tab now too:
select rating
Wanna post a correction for this tab? Suggest correction