Oops, an error
Loading. Please wait.
We have Chord Pro version of Budapest.
It's the closest thing you can get to the original song and it has interactive parts. Check out the tab »
×
362 views 1 this week
7 commentsread comments
1 2 3 4 5
1 last vote to show rating
add to favorites
×
Save as Personal and add changes to this tab that will be seen only by you. Learn more ›
×
You can save this tab as Personal to edit and correct it or add notes. All changes will be seen only by you. Learn more »
launch autoscroll
font size
0
reset
guitar tuner
edit
Autoscroll
slow
fast
+/-
esc
set tempo
stop
Author
Difficulty
Unregistered
-------------------------------------------------------------------------------
                             Budapest-George Ezra
-------------------------------------------------------------------------------
Tabbed by: JuliusCedar
Please read all below, otherwise you will find the tab sounds weird
(Bars straight up and down are bar lines)
I did not write this tab, credit is due, but no contributor was listed. If you do know who wrote it or are the 
person, contact me here.
Complaints, email me. Don't spam comments...
E-mail: juliustreejohnson@gmail.com
Connected numbers implies eighth notes, the beat is dotted quarter, eighth, quarter.

Tuning: standard

G|-------|-----------------------|Verse 2--------------------------------------|
D|-4------|-----------------------|---------------------------------------------|
A|-5------|-----------------------|---------------------------------------------|
E|-1-1-1-|-1-1-1-|-1-1-1-|-1-1-1-|-1-1-1-|-1-1-1-|-1-1-1-|-1-11135-------------|

G|-------------------------------------|-Verse 3-----------------------------|
D|-------------------------------------|-------------------------------------|
A|-----------------------13-|-------13-|-------------------------------------|
E|-6-6-6-|-6-6613-5-|-11----|-1-1-1----|-1-1-1-|-1-1-1|-1-1-1----------------|

G|---------------------------------------------------------------------------|
D|---------------------------------------------------------------------------|
A|---------------------------------------------------------------------------|
E|-1-1113-5|-6-6-6-|-6-6613-5-|-1-1-1-|-1-1-1-|-1-1-1-|-1-1113-5-|-6-6-6-|---|

G|------------------------------|-Chorus--------------------------------------|
D|------------------------------|---------------------------------------------|
A|------------------13|-------13|-3-3-3-5-|-1-1-1-3-|-------13-|--------------|
E|-6-6613-5-|-1-1-1---|-1-1-1---|---------|---------|-1-1-1----|--------------|

G|----------------------------------------------|-Verse 4---------------------|
D|----------------------------------------------|-----------------------------|
A|------13|-3-3-3-5|-1-1-1-3|-------13|-------13|-----------------------------|
E|1-1-1---|--------|--------|-1-1-1---|-1-1-1---|-1-1-1-|-1-1-1-|-1-1-1-|-----|

G|---------------------------------------------------------------------------|
D|---------------------------------------------------------------------------|
A|---------------------------------------------------------------------------|
E|-1-1113-5|-6-6-6-|-6-6613-5|-1-1-1|-1-11135|-6-6-6-|-6-6613-5|-1-1-1|------|

G|--------------------------------------|Chorus----------------------------------|
D|--------------------------------------|----------------------------------------|
A|------------------------------------13|-------13|-3-3-3-5-|-1-1-1-3-|-------13-|
E|-1-1113-5-|-6-6-6-|-6-66135-|-1-1-1---|-1-1-1---|---------|---------|-1-1-1----|

G|----------------------------------------------|Chorus----------------------------------|
D|----------------------------------------------|----------------------------------------|
A|------13|-3-3-3-5|-1-1-1-3|-------13|-------13|-------13|-3-3-3-5-|-1-1-1-3-|-------13-|
E|1-1-1---|--------|--------|-1-1-1---|-1-1-1---|-1-1-1---|---------|---------|-1-1-1----|

G|----------------------------------------------|
D|----------------------------------------------|
A|------13|-3-3-3-5|-1-1-1-3|-------13|-------13|
E|1-1-1---|--------|--------|-1-1-1---|-1-1-1---|


G|Interlude---------------------------------------------------------------------------|
D|------------------------------------------------------------------------------------|
A|------13|-------13|------13|------13|---------------------13|-------13|-------------|
E|1-1-1----|-1-1-1--|-1-1-1--|-1-1-1--|-6-6-6|-6-6-6-|-1-1-1--|-1-1-1---|-------------|

G|-Verse 5-------------------------------------------------------------------|
D|---------------------------------------------------------------------------|
A|---------------------------------------------------------------------------|
E|-1-1-1|-1-1-1|-1-1-1|-1-11135|-6-6-6|-6-66135|-1-1-1|-1-1113-5|-6-6-6-|----|

G|---------------------------------------------------------------------------|
D|---------------------------------------------------------------------------|
A|---------------------------------------------------------------------------|
E|-6-6613-5|-Chorus until end------------------------------------------------|


===============================================================================

            
            
Suggest correction
Creating personal tab
Creating personal tab
You can edit any tab online and save it as your Personal.

You can edit, replace or remove any tab part or add personal notes – all changes will be seen only by you.

Personal tabs can be accessed anytime from any device, even offline.
Learn more »
Give kudos to tab author, rate the tab!
1 2 3 4 5
comments
print report bad tab
7 comments total. Showing first comments.
0 reply
boredchika 209 Jul 08, 2015 06:22 PM

Completely wrong. All those Es when they should be Fs sound just awful when playing along.

0 reply
Icysjorn 72 Aug 19, 2015 09:15 AM

They are Fs, its a capo ;) please read the whole thing before criticizing

0 reply
boredchika 209 Aug 21, 2015 12:15 AM

Who capos a bass? That just makes this tab even more ridiculous.

guest
Wanna post a correction for this tab? Suggest correction