Oops, an error
Loading. Please wait.

Leaving It Up To You tab

version 2
version 2

Whole song

784 views 3 this week
no commentswrite comment
1 2 3 4 5
x 3
add to favorites
×
Save as Personal and add changes to this tab that will be seen only by you. Learn more ›
×
You can save this tab as Personal to edit and correct it or add notes. All changes will be seen only by you. Learn more »
launch autoscroll
font size
0
reset
how to read this tab
guitar tuner
edit
Autoscroll
slow
fast
+/-
esc
set tempo
stop
If you listen to it you will be able to pick up the rhythm of the strumming.
The song is best played in a finger-picking style.
Tuning: Drop D (DADGBE)


[Intro]

E|-------------------------------------------------|
B|-------------------------------------------------|
G|-------------------------------------------------|   (x2)
D|-------------------------------------------------|
A|-----9-9---9-----9-9---9-----9-9--------7-7------|
D|-0-0-----0---0-0-----0---7-7-----7--5-5-----5----|


[Verse]

E|-------------------------------------------------|
B|-------------------------------------------------|
G|-------------------------------------------------| 
D|-------------------------------------------------|
A|-----9-9---9-----9-9---9-----9-9--------7-7------|
D|-0-0-----0---0-0-----0---7-7-----7--5-5-----5----|
(I walk past the bleak walls...)

E|--------------------------------------------------------------|
B|--------------------------------------------------------------|
G|--------------------------------------------------------------|
D|--------------------------------------------------------------|
A|-----9-9---9-----9-9---9-----9-9---9-----9-9---9-----9-9------|
D|-0-0-----0---0-0-----0---0-0-----0---0-0-----0---7-7-----7----|

E|--------------|
B|--------------|
G|--------------|
D|--------------|
A|-----9-9------|
D|-5-5-----5----|

E|-----------------------------------------------------|
B|-----------------------------------------------------|
G|-----------------------------------------------------|
D|-----------------------------------------------------|
A|-----9-9---9-----9-9---9------7-----9-----9-9---9----|
D|-0-0-----0---0-0-----0----5-5---7-7---0-0-----0------|

E|-----------------------------------|
B|-----------------------------------|
G|-----------------------------------|
D|-----------------------------------|
A|-----7-----9-----9-9---9--7---9----|
D|-5-5---7-7---0-0-----0----5---7----|


[Instrumental]

E|-------------------------------------------------|
B|-------------------------------------------------|
G|-------------------------------------------------|   (x2)
D|-------------------------------------------------|
A|-----9-9---9-----9-9---9-----9-9--------7-7------|
D|-0-0-----0---0-0-----0---7-7-----7--5-5-----5----|


[Verse]

E|-------------------------------------------------|
B|-------------------------------------------------|
G|-------------------------------------------------| 
D|-------------------------------------------------|
A|-----9-9---9-----9-9---9-----9-9--------7-7------|
D|-0-0-----0---0-0-----0---7-7-----7--5-5-----5----|

E|--------------------------------------------------------------|
B|--------------------------------------------------------------|
G|--------------------------------------------------------------|
D|--------------------------------------------------------------|
A|-----9-9---9-----9-9---9-----9-9---9-----9-9---9-----9-9------|
D|-0-0-----0---0-0-----0---0-0-----0---0-0-----0---7-7-----7----|

E|--------------|
B|--------------|
G|--------------|
D|--------------|
A|-----9-9------|
D|-5-5-----5----|

E|-----------------------------------------------------|
B|-----------------------------------------------------|
G|-----------------------------------------------------|
D|-----------------------------------------------------|
A|-----9-9---9-----9-9---9------7-----9-----9-9---9----|
D|-0-0-----0---0-0-----0----5-5---7-7---0-0-----0------|

E|-----------------------------------|
B|-----------------------------------|
G|-----------------------------------|
D|-----------------------------------|
A|-----7-----9-----9-9---9--7---9----|
D|-5-5---7-7---0-0-----0----5---7----|


[Chorus]

E|-------------------------------------------------|
B|-------------------------------------------------|
G|-------------------------------------------------|  (x4)
D|-------------------------------------------------| 
A|-----9-9---9-----9-9---9-----9-9--------7-7------|
D|-0-0-----0---0-0-----0---7-7-----7--5-5-----5----|


[Instrumental]

E|-------------------------------------------------|
B|-------------------------------------------------|
G|-------------------------------------------------|   (x2)
D|-------------------------------------------------|
A|-----9-9---9-----9-9---9-----9-9--------7-7------|
D|-0-0-----0---0-0-----0---7-7-----7--5-5-----5----|


[Verse]

E|-------------------------------------------------|
B|-------------------------------------------------|
G|-------------------------------------------------| 
D|-------------------------------------------------|
A|-----9-9---9-----9-9---9-----9-9--------7-7------|
D|-0-0-----0---0-0-----0---7-7-----7--5-5-----5----|

E|--------------------------------------------------------------|
B|--------------------------------------------------------------|
G|--------------------------------------------------------------|
D|--------------------------------------------------------------|
A|-----9-9---9-----9-9---9-----9-9---9-----9-9---9-----9-9------|
D|-0-0-----0---0-0-----0---0-0-----0---0-0-----0---7-7-----7----|

E|--------------|
B|--------------|
G|--------------|
D|--------------|
A|-----9-9------|
D|-5-5-----5----|

E|-----------------------------------------------------|
B|-----------------------------------------------------|
G|-----------------------------------------------------|
D|-----------------------------------------------------|
A|-----9-9---9-----9-9---9------7-----9-----9-9---9----|
D|-0-0-----0---0-0-----0----5-5---7-7---0-0-----0------|

E|-----------------------------------|
B|-----------------------------------|
G|-----------------------------------|
D|-----------------------------------|
A|-----7-----9-----9-9---9--7---9----|
D|-5-5---7-7---0-0-----0----5---7----|


[Chorus 2]

E|-------------------------------------------------|
B|-------------------------------------------------|
G|-------------------------------------------------|
D|-------------------------------------------------|  (x2)
A|-----9-9---9-----9-9---9-----9-9--------7-7------|
D|-0-0-----0---0-0-----0---7-7-----7--5-5-----9----|

E|-----------------------------------------------------|
B|-----------------------------------------------------|
G|-----------------------------------------------------|
D|-----------------------------------------------------| (x2)
A|-----9-9---9-----9-9--------9-9----------12-12-------|
D|-0-0-----0---0-0-----0--9-9-----9--11-11-------11----|


[Verse]

E|-------------------------------------------------|
B|-------------------------------------------------|
G|-------------------------------------------------| 
D|-------------------------------------------------|
A|-----9-9---9-----9-9---9-----9-9--------7-7------|
D|-0-0-----0---0-0-----0---7-7-----7--5-5-----5----|

E|--------------------------------------------------------------|
B|--------------------------------------------------------------|
G|--------------------------------------------------------------|
D|--------------------------------------------------------------|
A|-----9-9---9-----9-9---9-----9-9---9-----9-9---9-----9-9------|
D|-0-0-----0---0-0-----0---0-0-----0---0-0-----0---7-7-----7----|

E|--------------|
B|--------------|
G|--------------|
D|--------------|
A|-----9-9------|
D|-5-5-----5----|

E|-----------------------------------------------------|
B|-----------------------------------------------------|
G|-----------------------------------------------------|
D|-----------------------------------------------------|
A|-----9-9---9-----9-9---9------7-----9-----9-9---9----|
D|-0-0-----0---0-0-----0----5-5---7-7---0-0-----0------|

E|-----------------------------------|
B|-----------------------------------|
G|-----------------------------------|
D|-----------------------------------|
A|-----7-----9-----9-9---9--7---9----|
D|-5-5---7-7---0-0-----0----5---7----|


[Chorus 2]

(Repeat chorus 2 until the end of the song)

E|-------------------------------------------------|
B|-------------------------------------------------|
G|-------------------------------------------------|
D|-------------------------------------------------|  (x2)
A|-----9-9---9-----9-9---9-----9-9--------7-7------|
D|-0-0-----0---0-0-----0---7-7-----7--5-5-----9----|

E|-----------------------------------------------------|
B|-----------------------------------------------------|
G|-----------------------------------------------------|
D|-----------------------------------------------------| (x2)
A|-----9-9---9-----9-9--------9-9----------12-12-------|
D|-0-0-----0---0-0-----0--9-9-----9--11-11-------11----|
Suggest correction
Creating personal tab
Creating personal tab
You can edit any tab online and save it as your Personal.

You can edit, replace or remove any tab part or add personal notes – all changes will be seen only by you.

Personal tabs can be accessed anytime from any device, even offline.
Learn more »
Give kudos to tab author, rate the tab!
1 2 3 4 5
comments
print report bad tab
guest
You may want to rate the tab now too:
select rating
Wanna post a correction for this tab? Suggest correction