Oops, an error
Loading. Please wait.

Canadian Pacific bass

37 views 1 this week
no commentswrite comment
1 2 3 4 5
3 more votes to show rating
add to favorites
×
Save as Personal and add changes to this tab that will be seen only by you. Learn more ›
×
You can save this tab as Personal to edit and correct it or add notes. All changes will be seen only by you. Learn more »
launch autoscroll
font size
0
reset
guitar tuner
edit
Autoscroll
slow
fast
+/-
esc
set tempo
stop
Author
Canadian Pacific 
Track taken from the album of the same name in 1971 by Country and
Western star George Hamilton iv.  Bass tab by bass50611. 
As per original bass line and a nice and easy going Country Music track

Intro:
...Canadian pacific...
G|------------------------------------|
D|-----------------5-----5-----5----5-|
A|--------------3-----3-----3----3----|
E|------------------------------------|

Verse 1:
G|---------------------------------------------------|
D|-3---3-------5---5---7---7---3---3---3---3---5---5-|
A|---3---3---3---3---5---5---3---3---1---1---3---3---|
E|---------------------------------------------------|

G|-----------5--3--2----|
D|-5---5--------------5-|
A|---5---5--------------|
E|----------------------|

Verse 2:
G|-------------------------------------------------------|
D|-3---3-------5---5-----7---7---3---3-----3---3---5---5-|
A|---3---3---3---3---3-5---5---3---3---3-1---1---3---3---|
E|-------------------------------------------------------|

G|--------------------|
D|---5---5---3---3--3-|
A|-3---3-------3---3--|
E|--------------------|

Chorus 1:
G|------------------------------------3---3---5----------------------|
D|---5---5---5---5---3---3---3---3------3---3---5----5---3---3---3---|
A|-3---3---3---3-------3---3---3---3---------------3-------3---3---3-|
E|-------------------------------------------------------------------|

G|------------------------------------------3---3------------|
D|-3-------5---5---5---5---3---3---3---3------3---3----5---5-|
A|---3---3---3---3---3-------3---3---3---3-----------3---3---|
E|-----------------------------------------------------------|

G|-----------------|
D|-3---3---3---3---|
A|---3---3---3---3-|
E|-----------------|

Verse 3:
G|-------------------------------------------------------|
D|-3---3-------5---5-----7---7---3---3-----3---3---5---5-|
A|---3---3---3---3---3-5---5---3---3---3-1---1---3---3---|
E|-------------------------------------------------------|

G|-----------5--3--2----|
D|-5---5--------------5-|
A|---5---5--------------|
E|----------------------|

Verse 4:
G|-------------------------------------------------------|
D|-3---3-------5---5-----7---7---3---3-----3---3---5---5-|
A|---3---3---3---3---3-5---5---3---3---3-1---1---3---3---|
E|-------------------------------------------------------|

                     (Key Change)
G|-----------------------------|
D|---5---5---3---3-----4---4---|
A|-3---3-------3---3-3---4---4-|
E|-----------------------------|

Verse 5:
G|-------------------------------------------------------|
D|-4---4-------6---6-----8---8---6---6-----4---4---6---6-|
A|---4---4---4---4---4-6---6---4---4---4-2---2---4---4---|
E|-------------------------------------------------------|

G|-----------6--4--3----|
D|-6---6--------------6-|
A|---6---6--------------|
E|----------------------|

Verse 6:
G|-------------------------------------------------------|
D|-4---4-------6---6-----8---8---6---6-----4---4---6---6-|
A|---4---4---4---4---4-6---6---4---4---4-2---2---4---4---|
E|-------------------------------------------------------|

G|--------------------|
D|---6---6---4---4--4-|
A|-4---4-------4---4--|
E|--------------------|

Chorus 2:
G|------------------------------------4---------------------------------|
D|---6---6---6---6---4---4---4---4------4-----------6---6---4---4---4---|
A|-4---4---4---4-------4---4---4---4-------2--2---4---4-------4---4---4-|
E|----------------------------------------------------------------------|

G|------------------------------------------4-------------------|
D|-4-------6---6---6---6---4---4---4---4------4-----------6---6-|
A|---4---4---4---4---4-------4---4---4---4-------2--2---4---4---|
E|--------------------------------------------------------------|

G|-----------------|
D|-4---4---4---4---|
A|---4---4---4---4-|
E|-----------------|

Outro:                                                    (SONG FADES OUT)
G|------------------------------------4---------------------------------|
D|---6---6---6---6---4---4---4---4------4-----------6---6---4---4---4---|
A|-4---4---4---4-------4---4---4---4-------2--2---4---4-------4---4---4-|
E|----------------------------------------------------------------------|


            
            
Suggest correction
Creating personal tab
Creating personal tab
You can edit any tab online and save it as your Personal.

You can edit, replace or remove any tab part or add personal notes – all changes will be seen only by you.

Personal tabs can be accessed anytime from any device, even offline.
Learn more »
Give kudos to tab author, rate the tab!
1 2 3 4 5
comments
print report bad tab
guest
You may want to rate the tab now too:
select rating
Wanna post a correction for this tab? Suggest correction