Oops, an error
Loading. Please wait.

All Those Years Ago Bass Tab

version 1
version 1

Whole song

Interactive

2,182 views 1 this week
no commentswrite comment
1 2 3 4 5
2 more votes to show rating
add to favorites
launch autoscroll
font size
0
reset
guitar tuner
Autoscroll
slow
fast
+/-
esc
set tempo
stop
Help us to improve Ultimate-Guitar.com Take our survey!
×
Author
ALL THOSE YEARS AGO


George Harrison


INTRO


G|---------------------------------|---------------------------------|
D|---------------------------------|---------------------------------|
A|-5----5--5-------5----5--5-------|-5----5--5-------5----5--5-------|
E|--------------5---------------5--|--------------5---------------5--|



G|---------------------------------|---------------------------------|
D|---------------------------------|---------------------------------|
A|-5----5--5-------5----5--5-------|-5----5--5-------5----5--5-------|
E|--------------5---------------5--|--------------5---------------5--|


VERSE


G|---------------------------------|---------------------------------|
D|---------------------------------|---------------------------------|
A|-5----5--5-------5----5--5-------|-5----5--5-------5----5--5-------|
E|--------------5---------------5--|--------------5---------------5--|



G|---------------------------------|---------------------------------|
D|---------------------------------|-----------------5----5--5----5--|
A|-7----7--7-------7----7--7-------|-7----7--7----7------------------|
E|--------------7---------------7--|---------------------------------|



G|---------------------------------|---------------------------------|
D|-----------------4----4--4----4--|-----------------5----5--5----5--|
A|-5----5--5----5------------------|-7----7--7----7------------------|
E|---------------------------------|---------------------------------|



G|---------------------------------|---------------------------------|
D|---------------------------------|---------------------------------|
A|-5----5--4----4----------9----9--|-7----7--7----7--7----7--7----7--|
E|-----------------7----7----------|---------------------------------|


VERSE


G|---------------------------------|---------------------------------|
D|---------------------------------|---------------------------------|
A|-5----5--5-------5----5--5-------|-5----5--5-------5----5--5-------|
E|--------------5---------------5--|--------------5---------------5--|



G|---------------------------------|---------------------------------|
D|---------------------------------|-----------------5----5--5----5--|
A|-7----7--7-------7----7--7-------|-7----7--7----7------------------|
E|--------------7---------------7--|---------------------------------|



G|---------------------------------|---------------------------------|
D|-----------------4----4--4----4--|-----------------5----5--5----5--|
A|-5----5--5----5------------------|-7----7--7----7------------------|
E|---------------------------------|---------------------------------|



G|---------------------------------|---------------------------------|
D|---------------------------------|---------------------------------|
A|-5----5--4----4----------9----9--|-7----7--7----7--7---5---4-------|
E|-----------------7----7----------|-----------------------------7---|


BRIDGE


G|---------------------------------|---------------------------------|
D|---------------------------------|---------------------------------|
A|-----------------5----5--5----5--|-7----7--7----7--7----7--7----7--|
E|-5----5--5----5------------------|---------------------------------|



G|---------------------------------|---------------------------------|
D|---------------------------------|---------------------------------|
A|---------------------------------|-5----5--5----5--5----5--5----5--|
E|-5----5--5----5--5----5--5----5--|---------------------------------|



G|---------------------------------|---------------------------------|
D|---------------------------------|---------------------------------|
A|-----------------5----5--5----5--|-7----7--7----7--7----7--7----7--|
E|-5----5--5----5------------------|---------------------------------|



G|---------------------------------|---------------------------------|
D|---------------------------------|---------------------------------|
A|---------------------------------|---------------------------------|
E|-5---5-----------5---5-----------|-5---5-----------5---5-----------|


VERSE


G|---------------------------------|---------------------------------|
D|---------------------------------|---------------------------------|
A|-5----5--5-------5----5--5-------|-5----5--5-------5----5--5-------|
E|--------------5---------------5--|--------------5---------------5--|



G|---------------------------------|---------------------------------|
D|---------------------------------|-----------------5----5--5----5--|
A|-7----7--7-------7----7--7-------|-7----7--7----7------------------|
E|--------------7---------------7--|---------------------------------|



G|---------------------------------|---------------------------------|
D|-----------------4----4--4----4--|-----------------5----5--5----5--|
A|-5----5--5----5------------------|-7----7--7----7------------------|
E|---------------------------------|---------------------------------|



G|---------------------------------|---------------------------------|
D|---------------------------------|---------------------------------|
A|-5----5--4----4----------9----9--|-7----7--7----7--7----7--7----7--|
E|-----------------7----7----------|---------------------------------|


G|---------------------------------|---------------------------------|
D|-----------------4----4--4----4--|-----------------5----5--5----5--|
A|-5----5--5----5------------------|-7----7--7----7------------------|
E|---------------------------------|---------------------------------|



G|---------------------------------|---------------------------------|
D|---------------------------------|---------------------------------|
A|-5----5--4----4----------9----9--|-7----7--7----7--7---5---4-------|
E|-----------------7----7----------|-----------------------------7---|


INTERLUDE


G|---------------------------------|---------------------------------|
D|---------------------------------|---------------------------------|
A|-5----5--5----5--5----5--5-------|-5----5--5----5--5----5--5-------|
E|------------------------------5--|------------------------------5--|



G|---------------------------------|---------------------------------|
D|---------------------------------|---------------------------------|
A|-5----5--5----5--5----5--5----5--|-5----5--5----5--5----5--5-------|
E|---------------------------------|------------------------------5--|


GUITAR SOLO


G|---------------------------------|---------------------------------|
D|---------------------------------|---------------------------------|
A|-5----5--5-------5----5--5-------|-5----5--5-------5----5--5-------|
E|--------------5---------------5--|--------------5---------------5--|



G|---------------------------------|---------------------------------|
D|---------------------------------|-----------------5----5--5----5--|
A|-7----7--7-------7----7--7-------|-7----7--7----7------------------|
E|--------------7---------------7--|---------------------------------|



G|---------------------------------|---------------------------------|
D|-----------------4----4--4----4--|-----------------5----5--5----5--|
A|-5----5--5----5------------------|-7----7--7----7------------------|
E|---------------------------------|---------------------------------|



G|---------------------------------|---------------------------------|
D|---------------------------------|---------------------------------|
A|-5----5--4----4----------9----9--|-7----7--7----7--7----7--7----7--|
E|-----------------7----7----------|---------------------------------|



G|---------------------------------|---------------------------------|
D|---------------------------------|---------------------------------|
A|-5----5--5-------5----5--5-------|-5----5--5-------5----5--5-------|
E|--------------5---------------5--|--------------5---------------5--|



G|---------------------------------|---------------------------------|
D|---------------------------------|-----------------5----5--5----5--|
A|-7----7--7-------7----7--7-------|-7----7--7----7------------------|
E|--------------7---------------7--|---------------------------------|



G|---------------------------------|---------------------------------|
D|-----------------4----4--4----4--|-----------------5----5--5----5--|
A|-5----5--5----5------------------|-7----7--7----7------------------|
E|---------------------------------|---------------------------------|



G|---------------------------------|---------------------------------|
D|---------------------------------|---------------------------------|
A|-5----5--4----4----------9----9--|-7----7--7----7--7---5---4-------|
E|-----------------7----7----------|-----------------------------7---|


BRIDGE


G|---------------------------------|---------------------------------|
D|---------------------------------|---------------------------------|
A|-----------------5----5--5----5--|-7----7--7----7--7----7--7----7--|
E|-5----5--5----5------------------|---------------------------------|



G|---------------------------------|---------------------------------|
D|---------------------------------|---------------------------------|
A|---------------------------------|-5----5--5----5--5----5--5----5--|
E|-5----5--5----5--5----5--5----5--|---------------------------------|



G|---------------------------------|---------------------------------|
D|---------------------------------|---------------------------------|
A|-----------------5----5--5----5--|-7----7--7----7--7----7--7----7--|
E|-5----5--5----5------------------|---------------------------------|



G|---------------------------------|---------------------------------|
D|---------------------------------|---------------------------------|
A|---------------------------------|---------------------------------|
E|-5---5-----------5---5-----------|-5---5-----------5---5-----------|


VERSE


G|---------------------------------|---------------------------------|
D|---------------------------------|---------------------------------|
A|-5----5--5-------5----5--5-------|-5----5--5-------5----5--5-------|
E|--------------5---------------5--|--------------5---------------5--|



G|---------------------------------|---------------------------------|
D|---------------------------------|-----------------5----5--5----5--|
A|-7----7--7-------7----7--7-------|-7----7--7----7------------------|
E|--------------7---------------7--|---------------------------------|



G|---------------------------------|---------------------------------|
D|-----------------4----4--4----4--|-----------------5----5--5----5--|
A|-5----5--5----5------------------|-7----7--7----7------------------|
E|---------------------------------|---------------------------------|



G|---------------------------------|---------------------------------|
D|---------------------------------|---------------------------------|
A|-5----5--4----4----------9----9--|-7----7--7----7--7----7--7----7--|
E|-----------------7----7----------|---------------------------------|



G|---------------------------------|---------------------------------|
D|-----------------4----4--4----4--|-----------------5----5--5----5--|
A|-5----5--5----5------------------|-7----7--7----7------------------|
E|---------------------------------|---------------------------------|



G|---------------------------------|---------------------------------|
D|---------------------------------|---------------------------------|
A|-5----5--4----4----------9----9--|-7----7--7----7--7----7--7----7--|
E|-----------------7----7----------|---------------------------------|



G|---------------------------------|---------------------------------|
D|-----------------4----4--4----4--|-----------------5----5--5----5--|
A|-5----5--5----5------------------|-7----7--7----7------------------|
E|---------------------------------|---------------------------------|



G|---------------------------------|---------------------------------|
D|---------------------------------|---------------------------------|
A|-5----5--4----4----------9----9--|-7----7--7----7--7----7--7----7--|
E|-----------------7----7----------|---------------------------------|



G|---------------------------------|
D|---------------------------------|
A|---------------------------------|
E|-5----5--5----5--5----5--5----5--|


OUTRO


G|---------------------------------|---------------------------------|
D|---------------------------------|---------------------------------|
A|-5----5--5-------5----5--5-------|-5----5--5-------5----5--5-------|
E|--------------5---------------5--|--------------5---------------5--|



G|---------------------------------|---------------------------------|
D|---------------------------------|-----------------5----5--5----5--|
A|-7----7--7-------7----7--7-------|-7----7--7----7------------------|
E|--------------7---------------7--|---------------------------------|



G|---------------------------------|---------------------------------|
D|-----------------4----4--4----4--|-----------------5----5--5----5--|
A|-5----5--5----5------------------|-7----7--7----7------------------|
E|---------------------------------|---------------------------------|



G|---------------------------------|---------------------------------|
D|---------------------------------|---------------------------------|
A|-5----5--4----4----------9----9--|-7----7--7----7--7----7--7----7--|
E|-----------------7----7----------|---------------------------------|



G|---------------------------------|---------------------------------|
D|---------------------------------|---------------------------------|
A|-5----5--5-------5----5--5-------|-5----5--5-------5----5--5-------|
E|--------------5---------------5--|--------------5---------------5--|



G|---------------------------------|---------------------------------|
D|---------------------------------|-----------------5----5--5----5--|
A|-7----7--7-------7----7--7-------|-7----7--7----7------------------|
E|--------------7---------------7--|---------------------------------|



G|---------------------------------|---------------------------------|
D|-----------------4----4--4----4--|-----------------5----5--5----5--|
A|-5----5--5----5------------------|-7----7--7----7------------------|
E|---------------------------------|---------------------------------|



G|---------------------------------|---------------------------------|
D|---------------------------------|---------------------------------|
A|-5----5--4----4----------9----9--|-7----7--7----7--7----7--7----7--|
E|-----------------7----7----------|---------------------------------|



G|---------------------------------|---------------------------------|
D|---------------------------------|---------------------------------|
A|-5----5--5-------5----5--5-------|-5----5--5-------5----5--5-------|
E|--------------5---------------5--|--------------5---------------5--|



G|---------------------------------|---------------------------------|
D|---------------------------------|-----------------5----5--5----5--|
A|-7----7--7-------7----7--7-------|-7----7--7----7------------------|
E|--------------7---------------7--|---------------------------------|



G|---------------------------------|---------------------------------|
D|-----------------4----4--4----4--|-----------------5----5--5----5--|
A|-5----5--5----5------------------|-7----7--7----7------------------|
E|---------------------------------|---------------------------------|



G|---------------------------------|---------------------------------|
D|---------------------------------|---------------------------------|
A|-5----5--4----4----------9----9--|-7----7--7----7--7----7--7----7--|
E|-----------------7----7----------|---------------------------------|



G|---------------------------------|---------------------------------|
D|---------------------------------|---------------------------------|
A|-5----5--5-------5----5--5-------|-5----5--5-------5----5--5-------|
E|--------------5---------------5--|--------------5---------------5--|



G|---------------------------------|---------------------------------|
D|---------------------------------|-----------------5----5--5----5--|
A|-7----7--7-------7----7--7-------|-7----7--7----7------------------|
E|--------------7---------------7--|---------------------------------|



G|---------------------------------|---------------------------------|
D|-----------------4----4--4----4--|-----------------5----5--5----5--|
A|-5----5--5----5------------------|-7----7--7----7------------------|
E|---------------------------------|---------------------------------|



G|---------------------------------|---------------------------------|
D|---------------------------------|---------------------------------|
A|-5----5--4----4----------9----9--|-7----7--7----7--7----7--7----7--|
E|-----------------7----7----------|---------------------------------|
                                                             FADE OUT
Suggest correction
Give kudos to tab author, rate the tab!
1 2 3 4 5
comments
print report bad tab
guest
You may want to rate the tab now too:
select rating
Wanna post a correction for this tab? Suggest correction