Oops, an error
Loading. Please wait.

All Those Years Ago Bass Tab

version 2
version 2

Whole song

Interactive

19 views 1 this week
no commentswrite comment
1 2 3 4 5
3 more votes to show rating
add to favorites
launch autoscroll
font size
0
reset
guitar tuner
Autoscroll
slow
fast
+/-
esc
set tempo
stop
Help us to improve Ultimate-Guitar.com Take our survey!
×
Author
Difficulty
intermediate
ALL THOSE YEARS AGO (Bassline)

As recorded by George Harrison
(From the 1981 Album SOMEWHERE IN ENGLAND)

Words and Music by George Harrison

Transcribed by Slowhand


Gtr I (E A D G) - 'Herbie Flowers - Bass'


 Intro
  Q=127(8=s8)
 4/4
  Gtr I
  W          E E E E E E E E   E E E E E E E E
|----------|-2-2-4-4-2-2-4-4-|-2-2-4-4-2-2-4-4-|
|----------|-0-0-0-0-0-0-0-0-|-0-0-0-0-0-0-0-0-|
|----------|-----------------|-----------------|
|----------|-----------------|-----------------|


                                      1st Verse
  E E E E E E E E   E E E E E E E E    E E E E E E E E   E E E E E E E E
|-2-2-4-4-2-2-4-4-|-2-2-4-4-2-2-4-4-||-2-2-4-4-2-2-4-4-|-2-2-4-4-2-2-4-4--|
|-0-0-0-0-0-0-0-0-|-0-0-0-0-0-0-0-0-||-0-0-0-0-0-0-0-0-|-0-0-0-0-0-0-0-0--|
|-----------------|-----------------||-----------------|------------------|
|-----------------|-----------------||-----------------|------------------|


  E E E E E E E E   E E E E E E E E   E E E E E E E E   E E E E E E E E
|-4-4-4-4-4-4-4-4-|---------0-0-0-0-|-----------------|---------0-0-0-0--|
|-2-2-2-2-2-2-2-2-|-2-2-2-2---------|-0-0-0-0-4-4-4-4-|-2-2-2-2----------|
|-----------------|-----------------|-----------------|------------------|
|-----------------|-----------------|-----------------|------------------|


                                      2nd Verse
  E E E E E E E E   E E E E E E E E    E E E E E E E E   E E E E E E E E
|-----------------|-----------------||-2-2-4-4-2-2-4-4-|-2-2-4-4-2-2-4-4--|
|-0-0---------4-4-|-2-2-2-2-2-2-2-2-||-0-0-0-0-0-0-0-0-|-0-0-0-0-0-0-0-0--|
|-----4-4-2-2-----|-----------------||-----------------|------------------|
|-----------------|-----------------||-----------------|------------------|


  E E E E E E E E   E E E E E E E E   E E E E E E E E   E E E E E E E E
|-4-4-4-4-4-4-4-4-|---------0-0-0-0-|-----------------|---------0-0-0-0--|
|-2-2-2-2-2-2-2-2-|-2-2-2-2---------|-0-0-0-0-4-4-4-4-|-2-2-2-2----------|
|-----------------|-----------------|-----------------|------------------|
|-----------------|-----------------|-----------------|------------------|


                                      Bridge
                                    $
  E E E E E E E E   E E E E E E E E    E E E E E E E E   E E E E E E E E
|-----------------|-----------------||-----------------|------------------|
|-0-0---------4-4-|-2-2-2-2-2-0-----||---------0-0-0-0-|-2-2-2-2-2-2-2-2--|
|-----4-4-2-2-----|-------------4-2-||-0-0-0-0---------|------------------|
|-----------------|-----------------||-----------------|------------------|


  E E E E E E E E   E E E E E E E E   E E E E E E E E   E E E E E E E E
|-----------------|-----------------|-----------------|------------------|
|-----------------|-0-0-0-0-0-0-0-0-|---------0-0-0-0-|-2-2-2-2-2-2-2-2--|
|-0-0-0-0-0-0-0-0-|-----------------|-0-0-0-0---------|------------------|
|-----------------|-----------------|-----------------|------------------|


                                  3rd & 4th Verses
  E Q.   E Q.     E Q.   E Q.      E E E E E E E E   E E E E E E E E
|---------------|---------------||-2-2-4-4-2-2-4-4-|-2-2-4-4-2-2-4-4--|
|---------------|---------------||-0-0-0-0-0-0-0-0-|-0-0-0-0-0-0-0-0--|
|-0-0----0-0----|-0-0----0-0----||-----------------|------------------|
|---------------|---------------||-----------------|------------------|


  E E E E E E E E   E E E E E E E E   E E E E E E E E   E E E E E E E E
|-4-4-4-4-4-4-4-4-|---------0-0-0-0-|-----------------|---------0-0-0-0--|
|-2-2-2-2-2-2-2-2-|-2-2-2-2---------|-0-0-0-0-4-4-4-4-|-2-2-2-2----------|
|-----------------|-----------------|-----------------|------------------|
|-----------------|-----------------|-----------------|------------------|


  E E E E E E E E   E E E E E E E E   E E E E E E E E   E E E E E E E E
|-----------------|-----------------|-----------------|---------0-0-0-0--|
|-0-0---------4-4-|-2-2-2-2-2-2-2-2-|-0-0-0-0-4-4-4-4-|-2-2-2-2----------|
|-----4-4-2-2-----|-----------------|-----------------|------------------|
|-----------------|-----------------|-----------------|------------------|


                                       Interlude
                             To Coda
  E E E E E E E E   E E E E E E E E     E E E E E E E E   E E E E E E E E
|-----------------|------------------||-2-2-4-4-2-2-4-4-|-2-2-4-4-2-2-4-4-|
|-0-0---------0-0-|-2-2-2-2-2-0------||-0-0-0-0-0-0-0-0-|-0-0-0-0-0-0-0-0-|
|-----4-4-2-2-----|-------------4-2--||-----------------|-----------------|
|-----------------|------------------||-----------------|-----------------|


                                      Synthesizer Solo
  E E E E E E E E   E E E E E E E E    E E E E E E E E   E E E E E E E E
|-2-2-4-4-2-2-4-4-|-2-2-4-4-2-2-4-4-||-2-2-4-4-2-2-4-4-|-2-2-4-4-2-2-4-4--|
|-0-0-0-0-0-0-0-0-|-0-0-0-0-0-0-0-0-||-0-0-0-0-0-0-0-0-|-0-0-0-0-0-0-0-0--|
|-----------------|-----------------||-----------------|------------------|
|-----------------|-----------------||-----------------|------------------|


  E E E E E E E E   E E E E E E E E   E E E E E E E E   E E E E E E E E
|-4-4-4-4-4-4-4-4-|---------0-0-0-0-|-----------------|---------0-0-0-0--|
|-2-2-2-2-2-2-2-2-|-2-2-2-2---------|-0-0-0-0-4-4-4-4-|-2-2-2-2----------|
|-----------------|-----------------|-----------------|------------------|
|-----------------|-----------------|-----------------|------------------|


  E E E E E E E E   E E E E E E E E   E E E E E E E E   E E E E E E E E
|-----------------|-----------------|-2-2-4-4-2-2-4-4-|-2-2-4-4-2-2-4-4--|
|-0-0---------4-4-|-2-2-2-2-2-2-2-2-|-0-0-0-0-0-0-0-0-|-0-0-0-0-0-0-0-0--|
|-----4-4-2-2-----|-----------------|-----------------|------------------|
|-----------------|-----------------|-----------------|------------------|


  E E E E E E E E   E E E E E E E E   E E E E E E E E   E E E E E E E E
|-4-4-4-4-4-4-4-4-|---------0-0-0-0-|-----------------|---------0-0-0-0--|
|-2-2-2-2-2-2-2-2-|-2-2-2-2---------|-0-0-0-0-4-4-4-4-|-2-2-2-2----------|
|-----------------|-----------------|-----------------|------------------|
|-----------------|-----------------|-----------------|------------------|


                        D.S. al Coda &
  E E E E E E E E   E E E E E E E E     E E E E E E E E   E E E E E E E E
|-----------------|------------------||-----------------|---------0-0-0-0-|
|-0-0---------4-4-|-2-2-2-2-2-0------||-0-0-0-0-4-4-4-4-|-2-2-2-2---------|
|-----4-4-2-2-----|-------------4-2--||-----------------|-----------------|
|-----------------|------------------||-----------------|-----------------|


                                                         Outro
  E E E E E E E E   E E E E E E E E   E E E E E E E E     E E E E E E E E
|-----------------|-----------------|-----------------||--2-2-4-4-2-2-4-4--|
|-0-0---------4-4-|-2-2-2-2-2-2-2-2-|-----------------||o-0-0-0-0-0-0-0-0--|
|-----4-4-2-2-----|-----------------|-0-0-0-0-0-0-0-0-||o------------------|
|-----------------|-----------------|-----------------||-------------------|


  E E E E E E E E   E E E E E E E E   E E E E E E E E   E E E E E E E E
|-2-2-4-4-2-2-4-4-|-----------------|---------0-0-0-0-|------------------|
|-0-0-0-0-0-0-0-0-|-2-2-2-2-2-2-2-2-|-2-2-2-2---------|-0-0-0-0-4-4-4-4--|
|-----------------|-----------------|-----------------|------------------|
|-----------------|-----------------|-----------------|------------------|


  E E E E E E E E   E E E E E E E E   E E E E E E E E  4x
|---------0-0-0-0-|-----------------|------------------||
|-2-2-2-2---------|-0-0---------4-4-|-2-2-2-2-2-2-2-2-o||
|-----------------|-----4-4-2-2-----|-----------------o||
|-----------------|-----------------|------------------||


Duration Legend
---------------
W - whole; H - half; Q - quarter; E - 8th; S - 16th; T - 32nd; X - 64th; a - acciaccatura
+ - note tied to previous; . - note dotted; .. - note double dotted
Uncapitalized letters represent notes that are staccato (1/2 duration)
Irregular groupings are notated above the duration line
Duration letters will always appear directly above the note/fret number it represents the
duration for.  Duration letters with no fret number below them represent rests.  Multi-
bar rests are notated in the form Wxn, where n is the number of bars to rest for.  Low
melody durations appear below the staff

Tablature Legend
----------------
 h   - hammer-on
 p   - pull-off
 b   - bend
 pb  - pre-bend
 r   - bend release (if no number after the r, then release immediately)
 /\  - slide into or out of (from/to "nowhere")
 s   - legato slide
 S   - shift slide
  - natural harmonic
[n]  - artificial harmonic
n(n) - tapped harmonic
 ~   - vibrato
 tr  - trill
 T   - tap
 TP  - trem. picking
 PM  - palm muting
\n/  - tremolo bar dip; n = amount to dip
 \n  - tremolo bar down
 n/  - tremolo bar up
/n\  - tremolo bar inverted dip
 =   - hold bend; also acts as connecting device for hammers/pulls
 <>  - volume swell (louder/softer)
 x   - on rhythm slash represents muted slash
 o   - on rhythm slash represents single note slash

Misc Legend
-----------
 |  - bar
||  - double bar
||o - repeat start
o|| - repeat end
*|  - double bar (ending)
 :  - bar (freetime)
 $  - Segno
 &  - Coda
Tempo markers -  = BPM(8/16=s8/s16), where s8 = swing 8ths, s16 = swing 16ths




I'm shouting all about love
While they treated you like a dog
When you were the one who had made it
So clear
All those years ago.

I'm talking all about how to give
They don't act with much honesty
But you point the way to the truth when you say
All you need is love.

Living with good and bad
I always look up to you
Now were left cold and sad
By someone the devils best friend
Someone who offended all.

Were living in a bad dream
Theyve forgotten all about mankind
And you were the one they backed up to
The wall
All those years ago
You were the one who imagined it all
All those years ago.

Deep in the darkest night
I send out a prayer to you
Now in the world of light
Where the spirit free of the lies
And all else that we despised.

Theyve forgotten all about god
Hes the only reason we exist
Yet you were the one that they said was
So weird
All those years ago
You said it all though not many had ears
All those years ago
You had control of our smiles and our tears
All those years ago
Suggest correction
Give kudos to tab author, rate the tab!
1 2 3 4 5
comments
print report bad tab
guest
You may want to rate the tab now too:
select rating
Wanna post a correction for this tab? Suggest correction