Oops, an error
Loading. Please wait.

Any Road Bass Tab

804 views 3 this week
no commentswrite comment
1 2 3 4 5
3 more votes to show rating
add to favorites
launch autoscroll
font size
0
reset
guitar tuner
Autoscroll
slow
fast
+/-
esc
set tempo
stop
Help us to improve Ultimate-Guitar.com Take our survey!
×
Author
Difficulty
novice
Tuning: Standard (E A D G)

Listen for timing:

Intro
G|-------------------------------------------------------------------||
D|-------------------------------------------------------------------||
A|-5--5-5--5--5-5-0--0-5--0--0-5--5--5-5--5--5-5-0--0-5--0--0-5------||
E|-------------------------------------------------------------------||

Verse
G|-------------------------------------------------------------------||
D|-------------------------------------------------------------------||
A|-5--5-5-------5-0--0-5--0--0-5--5--5-5-------5-0--0-5--0--0-5------||
E|---------3-3---------------------------3-3-------------------------||

G|-------------------------------------------------------------------||
D|-------------------------------5-5---------------------------------||
A|------5--0--0-5--3-3-3-------------5-5------5------------3--3-3----||
E|-3-3-------------------3-3--5----------5-5--------1--1-1-----------||

G|-----------------------||
D|-----------------------||
A|-----------------------||
E|-3--3-3--5--5-5--------||

Inbetween verses:

G|-------------------------------------------------------------------||
D|-------------------------------------------------------------------||
A|-5--5-5--5--5-5-0--0-5--0--0-5--5--5-5--5--5-5-0--0-5--0--0-5------||
E|-------------------------------------------------------------------||


Verse
G|-------------------------------------------------------------------||
D|-------------------------------------------------------------------||
A|-5--5-5-------5-0--0-5--0--0-5--5--5-5-------5-0--0-5--0--0-5------||
E|---------3-3---------------------------3-3-------------------------||

G|-------------------------------------------------------------------||
D|-------------------------------5-5---------------------------------||
A|------5--0--0-5--3-3-3-------------5-5------5------------3--3-3----||
E|-3-3-------------------3-3--5----------5-5--------1--1-1-----------||

G|-----------------------||
D|-----------------------||
A|-----------------------||
E|-3--3-3--5--5-5--------||

Between Verses
G|------------------------------------||
D|------------------------------------||
A|-5--5-5--5--5-5-0--0-5--0--0-5------||
E|------------------------------------||

Bridge:

G|-------------------------------------------------------------------||
D|-------------------------------------------------------------------||
A|2--2-2--2--2-2--2--2-2--2--2-2-----------------5--5-5-------------2||
E|--------------------------------5--5-5--3-3-3---------0--0-0-2--2--||

G|-----------------------------------------------||
D|-----------------------------------------------||
A|-2--2-2-2--2-2---------------------------------||
E|-----------------5--5-5--0-0-0-5-5-5-----------||

Verse
G|-------------------------------------------------------------------||
D|-------------------------------------------------------------------||
A|-5--5-5-------5-0--0-5--0--0-5--5--5-5-------5-0--0-5--0--0-5------||
E|---------3-3---------------------------3-3-------------------------||

G|-------------------------------------------------------------------||
D|-------------------------------5-5---------------------------------||
A|------5--0--0-5--3-3-3-------------5-5------5------------3--3-3----||
E|-3-3-------------------3-3--5----------5-5--------1--1-1-----------||

G|-----------------------||
D|-----------------------||
A|-----------------------||
E|-3--3-3--5--5-5--------||

Inbetween verses:

G|-------------------------------------------------------------------||
D|-------------------------------------------------------------------||
A|-5--5-5--5--5-5-0--0-5--0--0-5--5--5-5--5--5-5-0--0-5--0--0-5------||
E|-------------------------------------------------------------------||

Suggest correction
Give kudos to tab author, rate the tab!
1 2 3 4 5
comments
print report bad tab
guest
You may want to rate the tab now too:
select rating
Wanna post a correction for this tab? Suggest correction