Oops, an error
Loading. Please wait.

Awaiting On You All Bass Tab

614 views 1 this week
no commentswrite comment
1 2 3 4 5
please rate
add to favorites
launch autoscroll
font size
0
reset
guitar tuner
Autoscroll
slow
fast
+/-
esc
set tempo
stop
Help us to improve Ultimate-Guitar.com Take our survey!
×
Author
Awaiting on You All - George Harrison
Tuning - Standard



Intro

G|--------------------------------------------------------------------------|
D|-------------------6-6-6--------------------------------------------------|
A|---------------6-6--------9-9--7-7-7-6-6----------------------------------|
E|---------7-7-7----------------------------9-9-9--7~----7------------------|

Verse

G|--------------------------------------------------------------------------|
D|---------4-6-4------------------4--6-6-4-6-4------------------------------|
A|---2-2h6--------2-2h4-6-------6-------------------------------------------|
E|------------------------4-4h6---------------------------------------------|

G|--------------------------------------------------------------------------|
D|---------4-6-4------------------4--6--------------------------------------|
A|---2-2h6--------2-2h4-6-------6-------------------------------------------|
E|------------------------4-4h6---------------------------------------------|

Pre-Chorus

G|--------------------------------------------------------------|
D|---------4-6-6-4-6-4------------------------------------------|4x
A|---2-2h6------------------------------------------------------|
E|--------------------------------------------------------------|

Chorus

G|----------------------------6---------------------------------|
D|---------------------------------------4-6-6-4-6-9------------|4x
A|-----7--7-7-7--7-7-6--6-6-4----2-2-2-6------------------------|
E|--------------------------------------------------------------|

G|--------------------------------------------------------------|
D|--------------------------------------------------------------|
A|----7-7-7--6-6--4-4-4--2~-2-----------------------------------|
E|--------------------------------------------------------------|

Repeat this for the whole song except for the intro
Suggest correction
Give kudos to tab author, rate the tab!
1 2 3 4 5
comments
print report bad tab
guest
You may want to rate the tab now too:
select rating
Wanna post a correction for this tab? Suggest correction