Oops, an error
Loading. Please wait.

Beware Of Darkness Tab

version 1
version 1

Solo

Whole song

11,835 views 21 this week
1 commentread comment
1 2 3 4 5
x 4
add to favorites
launch autoscroll
font size
0
reset
how to read this tab
guitar tuner
Autoscroll
slow
fast
+/-
esc
set tempo
stop
Help us to improve Ultimate-Guitar.com Take our survey!
×
Author
George Harrison - Beware of Darkness
Tabbed by dionysus85 (dionysus1985@hotmail.com)
theres already chords for this song but they lack the solo
so here it is (as i heard it)

Solo: goes over the bridge
E|---------------------------------------|
B|---------------------------------------|
G|--9-11-11b-11b-9----9-11-13-13b-13b-11-|
D|---------------------------------------|
A|---------------------------------------|
E|---------------------------------------|

E|---------------------------------------------15---|
B|-------10-12b--b12-10-12b--12-14-14b-b14-12-------|
G|--9/11--------------------------------------------|
D|--------------------------------------------------|
A|--------------------------------------------------|
E|--------------------------------------------------|

E|-12--------14----15b--14--------------|
B|-----12/14----------------14b---------|
G|--------------------------------------|
D|--------------------------------------|
A|--------------------------------------|
E|--------------------------------------|

E|----------------------------------------|
B|--b14-b13-12----------------------------|
G|----------------------------------------|
D|----------------------------------------|
A|----------------------------------------|
E|----------------------------------------|

the "b" before a note arent typos they mean prebends :D
Suggest correction
comments
print report bad tab
1 comment total.
0 reply
AstralProject 10 Jun 09, 2012 12:06 AM

The main lead for this song, also played after this solo (which I find to be very accurate) is:
e|-------11--------9-------7--------------|
B|----------------------------------------|
G|-8/11------11\9----9\7------------------|
D|----------------------------------------|
A|----------------------------------------|
E|----------------------------------------|

guest
You may want to rate the tab now too:
select rating
Wanna post a correction for this tab? Suggest correction