Oops, an error
Loading. Please wait.

Brainwashed album bass

229 views 6 this week
no commentswrite comment
1 2 3 4 5
3 more votes to show rating
add to favorites
×
Save as Personal and add changes to this tab that will be seen only by you. Learn more ›
×
You can save this tab as Personal to edit and correct it or add notes. All changes will be seen only by you. Learn more »
launch autoscroll
font size
0
reset
guitar tuner
edit
Autoscroll
slow
fast
+/-
esc
set tempo
stop
Author
Difficulty
-----------------------------------------------------------------------------
                      BRAINWASHED album - George Harrison
-----------------------------------------------------------------------------

George Harrison
Brainwashed (2002)

Tabbed by: crimson-dync
Tuning: Standard


-The "." means silence.
-The "()" means let ring.
-Every song is in 4/4, except when indicated.


-----------------------------------------------------------------------------
                              1. ANY ROAD
-----------------------------------------------------------------------------

161 b.p.m.

--INTRO--
G|-----------------|-----------------|-----------------|-----------------|
D|-----------------|-----------------|-----------------|-----------------| (x2)
A|-5---.-5-5---.---|-5---.-5-5---.---|---------5---.---|---------5---.---|
E|-----------------|-----------------|-5---.-----------|-5---.-----------|

--VERSE--
G|-----------------|-----------------|-----------------|-----------------|
D|-----------------|-----------------|-----------------|-----------------| (x2)
A|-5---.-5-5---.-5-|---------5---.-5-|---------5---.-5-|---------5---.---|
E|-----------------|-3---.-3---------|-5---.-5---------|-5---.-5---------|

--CHORUS--
G|-----------------|-----------------|-----------------|-----------------|
D|-5---.-5---------|-----------------|-----------------|-----------------|
A|---------5---.-5-|---------5---.-5-|-3---.-3-2---.-2-|-----------------|
E|-----------------|-5---.-5---------|-----------------|-3---.-3-5---.-5-|

G|-----------------|-----------------|-----------------|-----------------|-----------------|
D|-5---.-5-4---.-4-|-2---------------|-3---.-3-3---.-2-|-----------------|-----------------|
A|-----------------|-----.-5-5---.---|-----------------|-3---.-3-3---.---|-----------------|
E|-----------------|-----------------|-----------------|-----------------|-3---.-3-3---.---|

--INTRO 2--
G|-----------------|-----------------|-----------------|-----------------|
D|-----------------|-----------------|-----------------|-----------------|
A|-5---.-5-5---.---|-----.---5---.-5-|---------5---.-5-|---------5---.---|
E|-----------------|-3---.-3---------|-5---.-5---------|-5---.-5---------|

--VERSE--

--CHORUS--

--INTRO 2--

--BRIDGE--
G|-----------------|-----------------|-----------------|-----------------|
D|-----------------|-----------------|-----------------|-----------------|
A|-2---.-2-2---.---|-2---.-2-2---.---|-2---.-2-2---.---|-2---.-2-2---.---|
E|-----------------|-----------------|-----------------|-----------------|

G|-----------------|-----------------|-----------------|-----------------|
D|-----------------|-----------------|-----------------|-----------------|
A|-----------------|-----------------|-5---.-5-5---.---|-5---.-5-5---5---|
E|-5---.-5-5---.---|-3---.-3-3---.---|-----------------|-----------------|

G|-----------------|-----------------|-----------------|-----------------|
D|-2---.-2-2---.---|-4---.-4-4---.---|-----------------|-----------------|
A|-----------------|-----------------|-2---.-2-2---.---|-2---.-2-2---.---|
E|-----------------|-----------------|-----------------|-----------------|

G|-----------------|-----------------|-----------------|-----------------|
D|-----------------|-----------------|-----------------|-----------------|
A|-----------------|-----------------|-----------------|-----------------|
E|-5---.-5-5---.---|-0---.-0-0---.---|-5---.-5-5-5---5-|-5---.-----------|

--VERSE--

--CHORUS--

--INTRO 2-- (x2)

--CHORUS--

--INTRO 2--

--VERSE--

--CHORUS--

--CHORUS continuation--
G|-----------------|-----------------|---------2-3-4---|-5---.-----------|
D|-----------------|-----------------|-3---.-3---------|-------2-3-/--5--|
A|-5---.-5-5---.---|-5---.-5-5---.---|-----------------|-----------------|
E|-----------------|-----------------|-----------------|-----------------|

G|-----------------|-----------------|-----------------|-----------------|
D|-5---------------|-----------------|-----------------|-3---.-3-3---.-2-|
A|-----2-2-3-----5-|-5---.-5-5---.---|-5---.-5-5---.-3-|-----------------|
E|-----------------|-----------------|-----------------|-----------------|

G|-----------------|-----------------|-----------------|
D|-----------------|-----------------|-----------------|
A|-3---.-3-3---.---|-3---.-3-3---.---|-----------------|
E|-----------------|-----------------|-3---.-3-3---.---|

--OUTRO--
G|-----------------|-----------------|-----------------|-----------------|
D|-----------------|-----------------|-----------------|-----------------| (x4)
A|-5---.-5-5---.---|-----.---5---.---|---------5---.---|---------5---.---|
E|-----------------|-3---.-3---------|-5---.-5---------|-5---.-5---------|

G|-----------------|-----------------|
D|-----------------|-----------------|
A|-5---.-5-5-5-5---|-------5-5-------|
E|---------------3-|-.-3-.-----------|

-----------------------------------------------------------------------------
                  2. P2 VATICAN BLUES (LAST SATURDAY NIGHT)
-----------------------------------------------------------------------------

113 b.p.m.


--INTRO--
G|-----------------|-----------------|-----------------|-----------------|
D|-----------------|-----------------|-----------------|-----------------|
A|-7-7-7-7-7-7-7-7-|-5-5-5-5-5-5-5-5-|-----4-4-5-5-6-6-|-7---------------|
E|-----------------|-----------------|-5-5-------------|-------0---------|

--VERSE 1--
G|-----------------|-----------------|-----------------|-----------------|
D|-----------------|-----------------|-------------4-.-|---------4-4-7-7-|
A|-------------4-7-|-------------3---|-5-5-.-5-5-5-----|-6-6-.-6---------|
E|-5-5-.-5-5-5-----|-5-5-.-5-5-5---5-|-----------------|-----------------|

--CHORUS 1--
G|-----------------|-----------------|-----------------|-----------------|
D|-----------------|---------2-2-.-2-|-----------------|-----------------|
A|-----------------|-2-2-.-2---------|-----4-4-5-5-6-6-|-7---------------|
E|-5-5-.-5-2-2-.-0-|-----------------|-5-5-------------|-------0---------|

--VERSE 2--
G|-----------------|-----------------|-----------------|-----------------|
D|-----------------|-----------------|-----------------|---------4-4-7-7-|
A|-------------4-7-|-----------4-7-4-|-5-5-.-5-5-5-.-5-|-6-6-.-6---------|
E|-5-5-.-5-5-5-----|-5-5-.-5-.-------|-----------------|-----------------|

--CHORUS 2--
G|-----------------|-----------------|-----------------|-----------------|
D|-----------------|-----------------|-----------------|-----------------|
A|-----------------|-2-2-.-2---------|-----4-4-5-5-6-6-|-7---------------|
E|-5-5-.-5-2-2-.-0-|---------0-0-.-0-|-5-5-------------|-----5-5---------|

--BRIDGE 1--
G|-----------------|-----------------|-----------------|-----------------|
D|-----------------|-----------------|-----------------|-----------------|
A|-5-5-.-5-5-5-.-5-|-5-5-.-5-5-5-.-5-|-----------------|-----------------|
E|-----------------|-----------------|-5-5-.-5-5-5-.-5-|-5-5-.-5-5-5-.-5-|

G|-----------------|-----------------|-----------------|-----------------|
D|-----------------|-----------------|-2-2-.-2-2-2-.-2-|-2-2-2-2-2-------|
A|-2-2-.-2-2-2-.-2-|-2-2-.-2-2-2-.-2-|-----------------|-----------------|
E|-----------------|-----------------|-----------------|-----------------|

--VERSE 3--
G|-----------------|-----------------|-----------------|-----------------|
D|-----------------|-----------------|-------------4-7-|-----------------|
A|-----------------|---------4---7---|-5-5-.-5-5-5-----|-6-6-.-6-4-4-7-7-|
E|-5---.---5-5-.-5-|-5-5-.-5---5---5-|-----------------|-----------------|

--CHORUS 3--
G|-----------------|-----------------|-----------------|-----------------|
D|-----------------|---------2-2-.-2-|-----------------|-----------------|
A|-----------------|-2-2-.-2---------|-----4-4-5-5-6-6-|-7---7-----------|
E|-5-5-.-5-2-2-.-0-|-----------------|-5-5-------------|-------0---------|

--GUITAR SOLO 1--
G|-----------------|-----------------|-----------------|-----------------|
D|-----------------|-----------------|-----------------|-----------------|
A|-----------------|-----------------|-5-.-5-.-5-.-5-.-|-6-.-6-6-6-.-6-6-|
E|-5-.-5-5-5-.-5-5-|-5-.-5-.-5-.-5-5-|-----------------|-----------------|

G|-----------------|-----------------|-----------------|-----------------|
D|---------4-.-4---|---------2-.-2---|-----------------|-----------------|
A|-7-.-7-7---------|-2-.-2-.---------|-----4-4-5-5-6-6-|-7---------------|
E|-----------------|-----------------|-5-5-------------|---5-5-5---5-7-5-|

--BRIDGE 2--
G|-----------------|-----------------|-----------------|-----------------|
D|-----------------|-----------------|-----------------|-----------------|
A|-5-5-5-5-5-5-5-5-|-5-5-5-5-5-5-.-5-|-----------------|-----------------|
E|-----------------|-----------------|-5-5-.-5-5-5-.-5-|-5-5-.-5-5-5-5-6-|

G|-----------------|-----------------|-----------------|-----------------|
D|-----------------|-----------------|-2-2-.-2-2-2-2-2-|-2---2-2---------|
A|-2-.-2-.-2-2-.-2-|-2-2-.-2-2-2-.-2-|-----------------|-----------------|
E|-----------------|-----------------|-----------------|---------0-------|

--VERSE 4--
G|-----------------|-----------------|-----------------|-----------------|
D|-----------------|-----------------|-----------------|---------4-4-7-7-|
A|-----------------|-------------4-.-|-5-.-5-.-5-.-5-.-|-6-6-.-6---------|
E|-5-.-5-.-5-5-.-5-|-5-.-5-.-5-5-----|-----------------|-----------------|

--CHORUS 4--
G|-----------------|-----------------|-----------------|-----------------|
D|-----------------|---------2-2-.-2-|-----------------|-----------------|
A|-----------------|-2-2-.-2---------|-----4-4-5-5-6-6-|-7-7-7-----------|
E|-5-5-.-5-2-2-.-0-|-----------------|-5-5-------------|-------0---------|

--GUITAR SOLO 2--
G|-----------------|-----------------|-----------------|-----------------|
D|-----------------|-----------------|-----------------|---------4-4-----|
A|-----------------|-------------3---|-5-.-5-.-5-5-.-5-|-6-.-6-.-----6-6-|
E|-5-.-5-.-5-5-.-5-|-5-.-5-.-5-5---5-|-----------------|-----------------|

--OUTRO--
G|-----------------|-----------------|-----------------|-----------------|
D|---------4-.-4---|---------2-2-.-2-|-----------------|---------2-2-2-2-|
A|-7-.-7-.---------|-2-2---2---------|-----------------|-2-2-.-2---------|
E|-----------------|-----------------|-5-5-.-5-2-2-.-0-|-----------------|

G|-----------------|-----------------|-----------------|-----------------|
D|-----------------|---------2-.-2---|-----5-5-4-4-3-3-|-----------------|
A|-----------------|-2-.-2-.---------|-----------------|-7---7-----------|
E|-5-5-.-5-2-2-.-0-|-----------------|-5-.-------------|---5---5---------|


-----------------------------------------------------------------------------
                             3. PISCES FISH
-----------------------------------------------------------------------------

81 b.p.m.

--INTRO--
G|-----------------|-----------------|-----------------|-----------------|
D|-----------------|-----------------|-----------------|---------5-------|
A|---------3-------|-----------------|-----------------|-------5---------|
E|-1---------------|-3-------5---5---|-3---.-3-3---.-3-|-3---.-----------|

G|-----------------|-----------------|-----------------|-----------------|
D|-3---------------|-----------------|-----------------|-----------------|
A|---------3-------|-----------------|-------------/---|-3---.-3-3---.---|
E|-----------------|-3-------5---5---|-3---.-3-3---35--|-----------------|

--VERSE 1--
G|-----------------|-----------------|-----------------|-----------------|
D|-----------------|-----------------|-----------------|---------5---5---|
A|-5---.-5-5-------|-3---.-3-3-------|-5---.-5-5-------|-------5---------|
E|-----------------|-----------------|-----------------|-3---.-----------|

G|-----------------|-----------------|-----------------|-----------------|
D|-----------------|-----------------|-----------------|-----------------|
A|-5---.-5-5-------|-3---2---0-------|---------3---.-3-|-----------------|
E|-----------------|-----------------|-1---.-1---------|-3---.-3-3-------|

--VERSE 2--
G|-----------------|-----------------|-----------------|-----------------|
D|-----------------|-----------------|-----------------|---------5---.---|
A|-5---.-5-5-------|-3---.-3-3-------|-5---.-5-5-------|-------5-------7-|
E|-----------------|-----------------|-----------------|-3---.-----------|

G|-----------------|-----------------|-----------------|-----------------|
D|-----------------|-----------------|-----------------|-----------------|
A|-5---.-5-5-------|-3---2---0-------|---------3---.-3-|-----------------|
E|-----------------|-----------------|-1---.-1---------|-3---.-3-3-------|

--CHORUS 1--
G|-----------------|-----------------|-----------------|-----------------|
D|-----------------|-----------------|-----------------|-----------------|
A|---------3-------|-----------------|-------------/---|-3---.-3-3---.---|
E|-1---.-1---------|-3-----3-5---5-5-|-3---.-3-3---35--|-----------------|

G|-----------------|-----------------|
D|-----------------|-----------------|
A|-----------------|-3-3---3-3---.---|
E|-3-3-3---3-3---3-|-----------------|

--VERSE 3--
G|-----------------|-----------------|-----------------|-----------------|
D|-----------------|-----------------|-----------------|---------5-------|
A|-5---.-5-5-------|-3---.-3-3-------|-5---.-5-5-----5-|-------5---------|
E|-----------------|---------------3-|-----------------|-3---.-----------|

G|-----------------|-----------------|-----------------|-----------------|
D|-----------------|-----------------|-----------------|-----------------|
A|-5---.-5-5-----5-|-3---2---0-------|---------3---.-3-|-----------------|
E|-----------------|-------------3---|-1---.-1---------|-3---.-3-3-------|

--VERSE 4--
G|-----------------|-----------------|-----------------|-----------------|
D|-----------------|-------------/---|-----------------|---------5---.---|
A|-5---.-5-5-------|-3---.-3-3---57.-|-5---.-5-5-------|-------5-------7-|
E|-----------------|-----------------|-----------------|-3---.-----------|

G|-----------------|-----------------|-----------------|-----------------|
D|-----------------|-----------------|-----------------|-----------------|
A|-5---.-5-5-------|-3---2---0-------|---------3---.-3-|-----------------|
E|-----------------|-----------------|-1---.-1---------|-3---.-3-3-------|

--CHORUS 2--
G|-----------------|-----------------|-----------------|-----------------|
D|-----------------|-----------------|-----------------|-----------------|
A|---------3-----3-|-----------------|-----------------|-----------------|
E|-1---.-1---------|-3-----3-5-----5-|-3---.-3-3-----3-|=3---.-3-3-------|

G|-----------------|-----------------|-----------------|-----------------|
D|-----------------|-----------------|-----------------|-----------------|
A|---------3---5---|-----------------|-------------/---|-3---.-3-3---.-5-|
E|-1---1-----------|-3---3---5---5---|-3---.-3-3---35--|-----------------|

--BRIDGE 1--
G|-----------------|-----------------|-----------------|-----------------|
D|-----------------|-----------------|-----------------|-----------------|
A|-----------------|-3--3----3-3--35-|-----------------|-3-3-----3-3--35-|
E|-3-----3-3----35-|-------35--------|-3-3-3-3-3-3-335-|-------35--------|

G|-----------------|-----------------|-----------------|-----------------|
D|-5---------------|-----------------|-----------------|---------10------|
A|-------5---------|-3-3-----3-3--35-|-----------------|-3-3-5/10--------|
E|---3-----3-3--35-|-------35--------|-3-3-3-3-3-3-335-|-----------------|

--VERSE 5--
G|-----------------|-----------------|-----------------|-----------------|
D|-----------------|-------------/---|-----------------|-5---------------|
A|-5---.-5-5---.-5-|-3---.-3-3---57.-|-5---.-5-5---.-5-|-------5---------|
E|-----------------|-----------------|-----------------|---------3-----3-|

G|-----------------|-----------------|-----------------|-----------------|
D|-----------------|-----------------|-----------------|-----------------|
A|-5---.-5-5---.-5-|-3---2---0-------|---------3---.-3-|-----------------|
E|-----------------|-----------------|-1---.-1---------|-3---.-3-3-------|

--VERSE 6--
G|-----------------|-----------------|-----------------|-----------------|
D|-----------------|---------/-------|-----------------|-5---------------|
A|-5---.-5-5---.-5-|-3-----3-57--3---|-5---.-5-5---.-5-|-----5-----------|
E|-----------------|-----------------|-----------------|---------3-----3-|

G|-----------------|-----------------|-----------------|-----------------|
D|-----------------|-----------------|-----------------|-----------------|
A|-5---.-5-5---.-5-|-3---2---0-------|---------3---.-3-|-----------------|
E|-----------------|-------------3---|-1---.-1---------|-3---.-3-3-------|

--CHORUS 3--
G|-----------------|-----------------|-----------------|-----------------|
D|-----------------|-----------------|---------5-------|-----------------|
A|---------3-----3-|-----------------|-------5-------5-|-----------------|
E|-1---.-1---------|-3---3---5---5---|-3---------------|-3---.-3-3-------|

G|-----------------|-----------------|-----------------|-----------------|
D|-------------/---|-----------------|-----------------|-----------------|
A|---------3---35--|-----------------|-----------------|-----------------|
E|-1---1/3---------|-3---3/5-5---5---|-3---.-3-3---3-.-|-3---.-3-3-------|

--OUTRO--
G|-----------------|-----------------|-----------------|-----------------|
D|-----------------|-----------------|-----------------|---------5-------|
A|---------3---3/5-|-----------------|-----------------|------55---------|
E|-1---1/3---------|-3---3/5-5---5---|-3---.-3-3---.-3-|-3---------------|

G|-----------------|-----------------|-----------------|-----------------|
D|-3---------------|-----------------|-----------------|-----------------|
A|---------3-------|-----------------|-----------------|-----------------|
E|-----------------|-3---3/5-5---5---|-3---.-3-3---.-3-|-3---.-3-3-------|

-----------------------------------------------------------------------------
                           4. LOOKING FOR MY LIFE
-----------------------------------------------------------------------------

114 b.p.m.

--INTRO--
G|-----------------|-----------------|-----------------|-----------------|
D|---------------5-|-----------------|---------------5-|-.---------------|
A|-3-3-.-3-3-3-.---|-.-5-.-3-3-------|-3-3-.-3-3-3-.---|---5-.-----------|
E|-----------------|-------------3---|-----------------|-------3-3---5\3-|

G|-----------------|-----------------|-----------------|-----------------|
D|---------------5-|-----------------|---------------5-|-.---------------|
A|-3-3-.-3-3-3-.---|-.-5-.-3-3-------|-3-3-.-3-3-3-.---|---5-.-3-3-------|
E|-----------------|-------------3---|-----------------|-------------3---|

G|-----------------|-----------------|-----------------|-----------------|
D|-----------------|-----------------|-----------------|-----------------|
A|-5---.-5-5-5-.-5-|-5---.-5-5-5-.-5-|-3---.-3-3-3-.-3-|-3---.-3-3-3-.-3-|
E|-----------------|-----------------|-----------------|-----------------|

G|-----------------|-----------------|
D|-----------------|-----------------|
A|-5---.-5-5-5-.-5-|-5---.-5-5-5-.-5-|
E|-----------------|-----------------|

--VERSE 1--
G|-----------------|-----------------|-----------------|-----------------|
D|-5---.-5-5-------|-----------------|-----------------|-----------------|
A|-----------------|-5---.-5-5-5-.-5-|-5---.---5-5-.-5-|-5---.---5-5-.-5-|
E|-----------------|-----------------|-----------------|-----------------|

G|-----------------|-----------------|-----------------|-----------------|
D|-----------------|-----------------|-----------------|-----------------|
A|-5---.---5-5-.-5-|-5---.-5-5---2-5-|-5---.-5-5-5-.-5-|-5---.-5-.---5---|
E|-----------------|-----------5-----|-----------------|-----------5---5-|

--CHORUS 1--
The same as INTRO

--VERSE 2--
G|-----------------|-----------------|-----------------|-----------------|
D|-5---.-5-5-------|-----------------|-----------------|-----------------|
A|-----------------|-5---.-5-5-5-.-5-|-5---.---5-5-.-5-|-5---.-5-5---2-5-|
E|-----------------|-----------------|-----------------|-----------5-----|

G|-----------------|-----------------|-----------------|-----------------|
D|-----------------|-----------------|-----------------|-----------------|
A|-5---.-5-5-5-.-5-|-5---.---5-5-.-5-|-5---.---5-5-.-5-|-5---.-5-5-5-.-5-|
E|-----------------|-----------------|-----------------|-----------------|

--CHORUS 2--
G|-----------------|-----------------|-----------------|-----------------|
D|---------------5-|-----------------|---------------5-|-.---------------|
A|-3-3-.-3-3-3-.---|-.-5-.-3-3-------|-3-3-.-3-3-3-.---|---5-.-----------|
E|-----------------|-------------3---|-----------------|-------3-3---5\3-|

G|-----------------|-----------------|-----------------|-----------------|
D|---------------5-|-----------------|---------------5-|-.---------------|
A|-3-3-.-3-3-3-.---|-.-5-.-3-3-------|-3-3-.-3-3-3-.---|---5-.-3-3-------|
E|-----------------|-------------3---|-----------------|-------------3---|

G|-----------------|-----------------|
D|-----------------|-----------------|
A|-5---.-5-5-5-.-5-|-5---.-5-5-5-.-5-|
E|-----------------|-----------------|

--CHORUS 3--
G|-----------------|-----------------|-----------------|-----------------|
D|---------------5-|-----------------|---------------5-|-.---------------|
A|-3---.-3-3-3-.---|-.-5-.-3-3-------|-3-3-.-3-3-3-.---|---5-.-----------|
E|-----------------|-------------3---|-----------------|-------3-3---5\3-|

G|-----------------|-----------------|-----------------|-----------------|
D|---------------5-|-----------------|---------------5-|-.---------------|
A|-3-3-.-3-3-3-.---|-.-5-.-3-3-------|-3-3-.-3-3-3-.---|---5-.-3-3-------|
E|-----------------|-------------3---|-----------------|-------------3---|

G|-----------------|-----------------|-----------------|-----------------|
D|-----------------|-----------------|-----------------|-----------------|
A|-5---.-5-5-5-.-5-|-5---.-5-5-5-.-5-|-3---.-3-3-3-.-3-|-3---.-3-3-3-.-3-|
E|-----------------|-----------------|-----------------|-----------------|

G|-----------------|-----------------|
D|-----------------|-----------------|
A|-5---.-5-5-5-.-5-|-5---.-5-5-5-.-5-|
E|-----------------|-----------------|

--VERSE 3--
G|-----------------|-----------------|-----------------|-----------------|
D|-5---.-5-5-5-.-5-|-----------------|-----------------|-----------------|
A|-----------------|-5---.-5-5-5-.---|-5---.---5-5-.---|-5---.-5-5-5-.-5-|
E|-----------------|---------------5-|---------------5-|-----------------|

G|-----------------|-----------------|-----------------|-----------------|
D|-----------------|-----------------|-----------------|-----------------|
A|-5---.---5-5-.-5-|-5---.-5-5---2-5-|-5---.-5-5-5-.-5-|-5---.-5-5---5---|
E|-----------------|-----------5-----|-----------------|-----------5---5-|

--CHORUS 4--
G|-----------------|-----------------|-----------------|-----------------|
D|---------------5-|-----------------|---------------5-|-.---------------|
A|-3---.-3-3---.---|-.-5-.-3-3-------|-3---.-3-3-3-.---|---5-.-----------|
E|-----------------|-------------3---|-----------------|-------3-3---5\3-|

G|-----------------|-----------------|-----------------|-----------------|
D|---------------5-|-----------------|---------------5-|-.---------------|
A|-3---.-3-3---.---|-.-5-.-3-3-------|-3-3-.-3-3-3-.---|---5-5-3-3-------|
E|-----------------|-------------3---|-----------------|-------------3---|

G|-----------------|-----------------|
D|-----------------|-----------------|
A|-5---.-5-5-5-.-5-|-5---.-5-5-5-.-5-|
E|-----------------|-----------------|

--CHORUS 5--
G|-----------------|-----------------|-----------------|-----------------|
D|---------------5-|-----------------|---------------5-|-.---------------|
A|-3---.-3-3---.---|-.-5-.-3-3-------|-3---.-3-3---.---|---5-.-----------|
E|-----------------|-------------3---|-----------------|-------3-3---5\3-|

G|-----------------|-----------------|-----------------|-----------------|
D|---------------5-|-----------------|---------------5-|-.---------------|
A|-3---.-3-3-3-.---|-.-5-.-3-3-------|-3---.-3-3-3-3---|---5-.-3-3-------|
E|-----------------|-------------3---|-----------------|-------------3---|

G|-----------------|-----------------|-----------------|-----------------|
D|-----------------|-----------------|-----------------|-----------------|
A|-5---.-5-5-5-.-5-|-5---.-5-5-5-.-3-|-3---.-3-3-3-.-3-|-3---.-3-3-3/5\3-|
E|-----------------|-----------------|-----------------|-----------------|

G|-----------------|-----------------|-----------------|-----------------|
D|-----------------|-----------------|-----------------|-----------------|
A|-5---.-5-5-5-.-5-|-5---.-5-5-5-.-5-|-3---.-3-3-3-.-3-|-3---.-3-3-3-.-3-|
E|-----------------|-----------------|-----------------|-----------------|

G|-----------------|-----------------|-----------------|-----------------|
D|-----------------|-----------------|-5---------------|-----------------|
A|-5---.-5-5-5-.-5-|-5---.-5-5-5-5-.-|-----------------|-----------------|
E|-----------------|-----------------|-----------------|-----------------|

-----------------------------------------------------------------------------
                             5. RISING SUN
-----------------------------------------------------------------------------

78 b.p.m.

--INTRO--
G|-----------------|-----------------|-----------------|-----------------|
D|-----------------|-----------------|-----------------|-----------------|
A|-------------5---|-----------------|-------------5---|-----------------|
E|-3-----3-5-------|-3-----3-5-------|-3-----3-5-------|-3-----3-3---.-5-|

--VERSE 1--
G|-----------------|-----------------|-----------------|-----------------|
D|-----------------|-----------------|-----------------|-----------------| (x3)
A|-5---------------|-5---------------|-5---------------|-5---------------|
E|---------3-------|---------3-------|---------3-------|---------6-.-3-.-|

G|-----------------|-----------------|-----------------|-----------------|
D|-----------------|-----------------|-----------------|-----------------|
A|-5---------------|-5---------------|-5---------------|-5--(5)----------|
E|---------3-------|---------3-------|---------3-------|---------0---2---|

--CHORUS 1--
G|-----------------|-----------------|-----------------|-----------------|
D|-----------------|-----------------|-----------------|-----------------|
A|-----------------|-3-----3-3-------|-----------------|-3-----3-3-3-----|
E|-3-----3-5-----5-|-----------------|-3-----3-5-------|-----------------|

G|-----------------|-----------------|--------------/--|-----------------|
D|-----------------|-----------------|--------------57-|7)/5-------------|
A|-----------------|-------------2.2-|-3.3-3.3-3.3-3.--|-----6-5-3-------|
E|-3.3-3.3-3.3-3.3-|-3.3-3.3-3.3-----|-----------------|-----------------|

--CHORUS 2--
G|-----------------|-----------------|-----------------|-----------------|
D|-----------------|-----------------|-----------------|-----------------|
A|-----------------|-3-----3-3-------|-----------------|-3-----3-3----/5-|
E|-3-----3-5-----5-|-----------------|-3-----3-5-----5-|-----------------|

G|-----------------|-----------------|-----------------|-----------------|
D|-----------------|-----------------|-----------------|-----------------|
A|-------------2.2-|-3.3-3.3-3-------|-------------3---|-----------------|
E|-3.3-3.3-3.3-----|-----------------|-3-----3-5-------|-3-----3-5-------|

G|-----------------|-----------------|-----------------|
D|-----------------|-----------------|-----------------|
A|-------------3---|-----------------|-----------------|
E|-3-----3-5-------|-3-----3-3-----3-|-3-----3-3---.-5-|

--VERSE 2--
G|-----------------|-----------------|-----------------|-----------------|
D|-----------------|-----------------|---------------5-|-----------------|
A|-5---------------|-5---------------|-5---------------|-5-----53--------|
E|---------3-----3-|---------3-----3-|---------3-------|---------6-.-3-.-|

G|-----------------|-----------------|-----------------|-----------------|
D|-----------------|-----------------|-----------------|-----------------|
A|-5---------------|-5---------------|-5---5-----------|-5---------------|
E|---------3-----3-|---------3-3---3-|---------3-----3-|---------6-.-3-.-|

G|-----------------|-----------------|-----------------|-----------------|
D|-----------------|-----------------|-----------------|-----------------|
A|-5-----5---------|-5---------------|-5-----5---------|-5-----53--------|
E|---------3-----3-|---------3-------|---------3-----3-|---------6.6.3.3.|

G|-----------------|-----------------|-----------------|-----------------|
D|-----------------|-----------------|-----------------|-----------------|
A|-5-----5---------|-5---------------|-5---------------|-5--(5)----------|
E|---------3---3---|---------3-3---3-|---------3-----3-|---------0---2---|

--CHORUS 3--
G|-----------------|-----------------|-----------------|-----------------|
D|-----------------|-----------------|-----------------|-----------------|
A|-----------------|-3-----3-3----/5-|-----------------|-3-----3-3-3--/5-|
E|-3-----3-5-----5-|-----------------|-3-----3-5-----5-|-----------------|

G|-----------------|-----------------|--------------/--|-----------------|
D|-----------------|-----------------|--------------57-|7)/5-------------|
A|-----------------|-------------2.2-|-3.3-3.3-3.3-3.--|-----6-5-3-------|
E|-3.3-3.3-3.3-3.3-|-3.3-3.3-3.3-----|-----------------|-----------------|

--CHORUS 4--
G|-----------------|-----------------|-----------------|-----------------|
D|-----------------|-----------------|-----------------|-----------------|
A|-----------------|-3-----3-3----/5-|-----------------|-3-----3-3----/5-|
E|-3-----3-5-----5-|-----------------|-3-----3-5-------|-----------------|

G|-----------------|-----------------|-----------------|-----------------|
D|-----------------|-----------------|-----------------|-----------------|
A|-------------2.2-|-3.3-3.3-3-------|-------------3---|-----------------|
E|-3.3-3.3-3.3-----|-----------------|-3-----3-5-------|-3-----3-5-------|

G|-----------------|-----------------|-----------------|
D|-----------------|-----------------|-----------------|
A|-------------3---|-----------------|-----------------|
E|-3-----3-5-------|-3-----3-3-3---3-|-3-----3-3---.5--|

--GUITAR SOLO--
G|-----------------|-----------------|-----------------|-----------------|
D|-----------------|-----------------|-----------------|-----------------|
A|-5-----5---------|-5---5-----------|-5---5-----------|-5-----53--------|
E|---------3-3---3-|---------3---3---|---------3---3---|---------6.6.3.3.|

G|-----------------|-----------------|-----------------|-----------------|
D|-----------------|-----------------|-----------------|-----------------|
A|-5-----5---------|-5---5-5---------|-5---5-5---------|-5-----5---------|
E|---------3---3---|---------3-----3-|---------3---3---|---------0---2---|

--CHORUS 5--
G|-----------------|-----------------|-----------------|-----------------|
D|-----------------|-----------------|-----------------|-----------------|
A|-----------------|-3-----3-3----/5-|-----------------|-3-----3-3-------|
E|-3-----3-5-----5-|-----------------|-3-----3-5-------|-----------------|

G|-----------------|-----------------|--------------/--|-----------------|
D|-----------------|-----------------|--------------57-|7)/5-------------|
A|-----------------|-------------2.2-|-3.3-3.3-3.3-3.--|-----6-5-3-------|
E|-3.3-3.3-3.3-3.3-|-3.3-3.3-3.3-----|-----------------|-----------------|

--CHORUS 6--
G|-----------------|-----------------|-----------------|-----------------|
D|-----------------|-----------------|-----------------|-------------/---|
A|-----------------|-3-----3-3---3/5-|-----------------|-3-----3-3---35--|
E|-3-----3-5-----5-|-----------------|-3-----3-5-------|-----------------|

G|-----------------|-----------------|-----------------|-----------------|
D|-----------------|-----------------|-----------------|-----------------|
A|---------------2-|-3.3-3.3-3-------|-------------3---|-----------------|
E|-3.3-3.3-3.3-3.--|-----------------|-3-----3-5-------|-3-----3-5-------|

G|-----------------|-----------------|-----------------|-----------------|
D|-----------------|-----------------|-----------------|-----------------|
A|-------------3---|-----------------|-------------3---|-----------------|
E|-3-----3-5-------|-3-----3-5-------|-3-----3-5-------|-3-----3-5---5---|

G|-----------------|-----------------|
D|-----------------|-----------------|
A|-------------3---|-3/10------------|
E|-3---3-3-5-------|-----------------|

-----------------------------------------------------------------------------
                             6. MARWA BLUES
-----------------------------------------------------------------------------

82 b.p.m.

[The D note is, in fact, one octave below. So you'd have to tune the E string in D.]

--ONE--
G|---------|---------|---------|---------|
D|---------|---------|---------|---------| (x2)
A|---------|---------|---------|---------|
E|-5-------|(5)------|-5-------|(5)------|

G|---------|---------|---------|---------|---------|---------|---------|---------|
D|---------|---------|---------|---------|---------|---------|---------|---------|
A|---------|---------|-5-------|(5)------|---------|---------|---------|---------|
E|-1-------|(1)------|---------|---------|-5-------|(5)------|-5-------|-.-------|

--TWO--
G|---------|---------|---------|---------|---------|---------|---------|---------|
D|---------|---------|---------|---------|---------|---------|---------|---------|
A|---------|---------|---------|---------|---------|---------|---------|---------|
E|-5-.-5-.-|-5-.-5-.-|-5-.-5-.-|-5-.-5-.-|-5-.-5-.-|-5-.-5-.-|-5-.-5-.-|-5-.-5-3-|

G|---------|---------|---------|---------|---------|---------|---------|---------|
D|-----3-.-|---------|---------|---------|---------|---------|---------|---------|
A|---------|---------|-5-.-5-.-|-5-.-5-.-|---------|---------|---------|---------|
E|-1-.-----|-1-.-1-0-|---------|---------|-5-.-5-.-|-5-.-5-.-|-5-.-5-.-|-5-.-----|

--THREE--
G|---------|---------|---------|---------|---------|---------|---------|---------|
D|---------|---------|---------|---------|---------|---------|---------|---------|
A|---------|---------|-3-.-3-.-|-3-.-3-.-|---------|---------|---------|---------|
E|-5-.-5-.-|-5-.-5-.-|---------|---------|-5-.-5-.-|-5-.-5-.-|-2-.-2-.-|-2-.-2-.-|

G|---------|---------|---------|---------|---------|---------|---------|---------|
D|---------|---------|---------|---------|---------|---------|---------|---------|
A|---------|---------|-5-.-5-.-|-5-.-5-.-|---------|---------|---------|---------|
E|-1-.-1-.-|-1-.-1-.-|---------|---------|-5-.-5-.-|-5-.-5-.-|-5-.-5-.-|-5-.-----|

--FOUR--
G|---------|---------|---------|---------|
D|---------|---------|---------|---------| (x2)
A|---------|---------|---------|---------|
E|-5-.-5-.-|-5-.-5-.-|-5-.-5-.-|-5-.-5-.-|

G|---------|---------|---------|---------|---------|---------|---------|---------|
D|---------|---------|---------|---------|---------|---------|---------|---------|
A|---------|---------|-2-.-2-.-|-2-.-2-.-|---------|---------|---------|---------|
E|-1-.-1-.-|-1-.-1-.-|---------|---------|-5-.-5-.-|-5-.-5-.-|-5---.---|-5---.---|

--FIVE--
G|---------|---------|---------|---------|---------|---------|
D|---------|---------|---------|---------|---------|---------|
A|---------|---------|---------|---------|---------|---------|
E|-5---5---|-5---5---|-5-------|-5-------|-5---5---|-5---5---|

-----------------------------------------------------------------------------
                           7. STUCK INSIDE A CLOUD
-----------------------------------------------------------------------------

97 b.p.m.

--INTRO--
G|---|---------------25|-----------------|-----------------|-----------------|
D|---|---------------/-|-7---------------|-5---------------|-----------------|
A|-7-|-5---------------|-----------------|---------------7-|-5-------------3-|
E|---|-----------------|-----------------|-----------------|-----------------|

--VERSE 1--
G|-----------------|-----------------|-----------------|-----------------|
D|---------------3-|-3-----------.---|---------------3-|-3-----------.---|
A|-3-----------.---|---------------3-|-3-----------.---|---------------3-|
E|-----------------|-----------------|-----------------|-----------------|

G|-----------------|-----------------|-----------------|-----------------|
D|---------------3-|-3-----------.---|-----------------|-----------------|
A|-3-----------.---|---------------5-|-5-----------.---|---------------3-|
E|-----------------|-----------------|---------------3-|-3---------3-5---|

--CHORUS 1--
G|-----------------|-----------------|-----------------|-----------------|
D|-3---.---3-3-.-3-|-2---.-2-2-2-.-2-|-----------------|-----------------|
A|-----------------|-----------------|-5---.---5-5-.-3-|-3---.---3-----3-|
E|-----------------|-----------------|-----------------|-----------3-5---|

G|-----------------|-----------------|-----------------|-----------------|
D|-----------------|-----------------|-----------------|-----------------|
A|-5---.---5-5-.-5-|-----------------|-------------3---|-5---.-5-5-5-.---|
E|-----------------|-5---.-5-5-5-3-5-|-5---.-5-5-5-----|---------------5-|

--GUITAR SOLO 1--
G|-----------------|-----------------|-----------------|-----------------|
D|-----------------|-----------------|-----------------|-----------------|
A|-3---.-3-----3\2-|-----------------|-3---.-3-----3\2-|---------------3-|
E|-----------------|-1---.-1-----1---|-----------------|-1---.-1-----.---|

--VERSE 2--
G|-----------------|-----------------|-----------------|-----------------|
D|---------------3-|-3-----------.---|---------------3-|-3-----------.---|
A|-3-----------.---|---------------3-|-3-----------.---|---------------3-|
E|-----------------|-----------------|-----------------|-----------------|

G|-----------------|-----------------|-----------------|-----------------|
D|---------------3-|-3-----------.---|-----------------|-----------------|
A|-3-----------.---|---------------5-|-5-----------.---|---------------3-|
E|-----------------|-----------------|---------------3-|-3-----3---3-5---|

--CHORUS 2--
G|-----------------|-----------------|-----------------|-----------------|
D|-3---.---3-3-.-2-|-2---.---2-2-.-2-|-----------------|-----------------|
A|-----------------|-----------------|-5---.---5-5-.-3-|-3---.-3-3-----3-|
E|-----------------|-----------------|-----------------|-----------3-5---|

G|-----------------|-----------------|-----------------|-----------------|
D|-----------------|-----------------|-----------------|---------------/-|
A|-5---.---5-5-.-5-|-----------------|---------3-3-.-5-|-5---.-5-5-5-.-57|
E|-----------------|-5---.-5-5-5-3-5-|-5---.-5---------|-----------------|

--CHORUS 3--
G|-----------------|-----------------|-----------------|-----------------|
D|-3---.---3-3-.-3-|-2---.---2-2-.---|-----------------|-----------------|
A|-----------------|---------------5-|-5---.---5-5-.-3-|-3---.---3-3-----|
E|-----------------|-----------------|-----------------|-------------3-5-|

G|-----------------|-----------------|-----------------|-----------------|
D|-----------------|-----------------|-----------------|-----------------|
A|-5---.-5-5-5-.-5-|-----------------|-------------3-3-|-5---.---5-5-.-5-|
E|-----------------|-5---.-5-5-5-3-5-|-5---.-3-5-5-----|-----------------|


--GUITAR SOLO 2--
G|-----------------|-----------------|-----------------|-----------------|
D|-----------------|-----------------|-----------------|-----------------|
A|-3---.-3-----3\2-|-----------------|-3---.-3-----3\2-|-----------------|
E|-----------------|-1---.-1-----1---|-----------------|-1---.-1-1-1-1---|

G|-----------------|-----------------|-----------------|-----------------|
D|-----------------|-----------------|---------------\-|-----------------|
A|-3---.-3-------2-|-----------------|-5---.-5-5---.-53|---------------3-|
E|-----------------|-1---1-1-----1-1-|-----------------|-3---.-3-5-3-5---|

--CHORUS 4--
G|-----------------|-----------------|-----------------|-----------------|
D|-3---.---3-3-.-3-|-2---.---2-2-.-2-|-----------------|-----------------|
A|-----------------|-----------------|-5---.---5-5-.-3-|-3---.---3-----3-|
E|-----------------|-----------------|-----------------|-----------3-5---|

G|-----------------|-----------------|-----------------|-----------------|
D|-----------------|-----------------|-----------------|-----------------|
A|-5---.---5-5-.-5-|-----------------|---------3-3-.-3-|-5---.-5-5-5-.-3-|
E|-----------------|-5---.-5-5-5-3-5-|-5---.-5---------|-----------------|

--VERSE 3--
G|-----------------|-----------------|-----------------|-----------------|
D|---------------3-|-3---------------|---------------3-|-3---------------|
A|-3---------------|---------------3-|-3---------------|---------------3-|
E|-----------------|-----------------|-----------------|-----------------|

G|-----------------|-----------------|-----------------|-----------------|
D|---------------3-|-3-------------3-|-----------------|-----------------|
A|-3---------------|-----------------|-5-------5-5-.-5-|---------------3-|
E|-----------------|-----------------|-----------------|-3---.-3-3-3-5---|

--CHORUS 5--
G|-----------------|-----------------|-----------------|-----------------|
D|-3---.-3-3-3-.-3-|-2---.---2-2-.---|-----------------|-----------------|
A|-----------------|---------------5-|-5---.---5-5-.-3-|-3---.-3-3-3-.-3-|
E|-----------------|-----------------|-----------------|-----------------|

G|-----------------|-----------------|-----------------|-----------------|
D|-----------------|-----------------|-----------------|-----------------|
A|-5---.---5-5-.-5-|-----------------|-------------3-3-|-5---.---5-5-.---|
E|-----------------|-5---.-5-5-5-3-5-|-5---.-3-5-5-----|-----------------|

--CHORUS 6--
G|-----------------|-----------------|-----------------|-----------------|
D|-3---.---3-3-.-3-|-2---.---2-2-.-2-|-----------------|-----------------|
A|-----------------|-----------------|-5---.---5-5-.-3-|-3---.-3-3-----3-|
E|-----------------|-----------------|-----------------|-----------3-5---|

G|-----------------|-----------------|-----------------|-----------------|
D|-----------------|-----------------|-----------------|-----------------|
A|-5---.---5-5-.-3-|-----------------|-------------3-3-|-5---.---5-5-.-5-|
E|-----------------|-5---.-5-5-5-3-5-|-5---.---5-5-----|-----------------|

--OUTRO--
G|-----------------|-----------------|-----------------|-----------------|
D|-----------------|-----------------|-----------------|-----------------|
A|-3---.-3-----3\2-|-----------------|-3---.-3-----3---|-----------------|
E|-----------------|-1---.-1-----1---|-----------------|-1---.-1---.-1---|

G|-----------------|-----------------|-----------------|-----------------|
D|-----------------|-----------------|-----------------|-----------------|
A|-3---.-3-----3\2-|-----------------|-3---.-3-----3\2-|-----------------|
E|-----------------|-1---.-1-----1\0-|-----------------|-1---.-1-----1---|

G|-----------------|-----------------|
D|-----------------|-----------------|
A|-3---------------|(3)--------------|
E|-----------------|-----------------|

-----------------------------------------------------------------------------
                              8. RUN SO FAR
-----------------------------------------------------------------------------

104 b.p.m.

--INTRO--
G|-----------------|-----------------|-----------------|-----------------|
D|-----------------|-----------------|-----------------|-----------------|
A|-3---.-3-3-3-.-3-|-----0---1---2---|-3---.-3-3-3-.-3-|-----0---1---2---|
E|-----------------|-3-3---3---3---3-|-----------------|-3-3---3---3---3-|

G|-----------------|-----------------|-----------------|-----------------|
D|-----------------|-----------------|-----------------|-----------------|
A|-3---.-3-3-3-.---|-----------------|-3---.-3-3-3-.-3-|-3---.-3-3-3-.---|
E|---------------3-|(3)--------------|-----------------|---------------3-|

--VERSE--
G|-----------------|-----------------|-----------------|-----------------|
D|-----------------|-----------------|-----------------|-----------------|  (x2)
A|-3---------------|-----------------|-3---------------|-----------------|
E|-----------------|-3---------------|---------------1-|-1---------------|

G|-----------------|-----------------|-----------------|-----------------|
D|-----------------|-----------------|-----------------|-------5-75------|
A|-----------------|-3---.-3-3-3-.-3-|-----------------|-3-3-7-----7-5-3-|
E|-3---.-3-3-3-.-3-|-----------------|-3---.-3-3-3-.-3-|-----------------|

--CHORUS--
G|-----------------|-----------------|-----------------|-----------------|
D|-----------------|-----------------|-----------------|-----------------|
A|-3---.-3-3-3-.-3-|-----0---1---2---|-3---.-3-3-3-.-3-|-----0---1---2---|
E|-----------------|-3-3---3---3---3-|-----------------|-3-3---3---3---3-|

G|-----------------|-----------------|-----------------|-----------------|
D|-----------------|-----------------|-----------------|-----------------|
A|-3---.-3-3-3-.---|-----------------|-3---.-3-3-3-.-3-|-3---.-3-3-3-.---|
E|---------------3-|(3)--------------|-----------------|---------------3-|

--VERSE--

--CHORUS--
G|-----------------|-----------------|-----------------|-----------------|
D|-----------------|-----------------|-----------------|-----------------|
A|-3---.-3-3-3-.-3-|-----0---1---2---|-3---.-3-3-3-.-3-|-----0---1---2---|
E|-----------------|-3-3---3---3---3-|-----------------|-3-3---3---3---3-|

G|-----------------|-----------------|-----------------|-----------------|
D|-----------------|-----------------|-----------------|-----------------|
A|-3---.-3-3-3-.---|-----0---1---2---|-3---.-3-3-3-.-3-|-----0---1---2---|
E|---------------3-|(3)3---3---3---3-|-----------------|-3-3---3---3---3-|

G|-----------------|-----------------|-----------------|-----------------|
D|-----------------|-----------------|-----------------|-----------------|
A|-3---.-3-3-3-.-3-|-----0---1---2---|-3---.-3-3-3-.-3-|-----0---1---2---|
E|-----------------|-3-3---3---3---3-|-----------------|-3-3---3---3---3-|

G|-----------------|-----------------|-----------------|-----------------|
D|-----------------|-----------------|-----------------|-----------------|
A|-3---.-3-3-3-.---|-----0---1---2---|-3---.-3-3-3-.-3-|-3---.-3-3-3-.---|
E|---------------3-|(3)3---3---3---3-|-----------------|---------------3-|

--PRE-VERSE--
G|-----------------|-----------------|-----------------|-----------------|
D|-----------------|-----------------|-----------------|-----------------|
A|-3---.-3-3-3-.-3-|-----------------|-3---.-3-3-3-.---|-----------------|
E|-----------------|-3---.-3-3-3-.-3-|---------------1-|-1---.-1-1-1-.-1-|

--VERSE--
G|-----------------|-----------------|-----------------|-----------------|
D|-----------------|-----------------|-----------------|-----------------|
A|-3---.-3-3-3-.---|-----------------|-3-3-.-3-3-3-.---|-----------------|
E|---------------3-|-3---.-3-3-3-.-3-|---------------1-|-1---.-1-1-1-.-1-|

G|-----------------|-----------------|-----------------|-----------------|
D|-----------------|-----------------|-----------------|-----------------|
A|-3-3-.-3-3-3-.-3-|-----------------|-3-3-.-3-3-3-.---|-----------------|
E|-----------------|-3-3-.-3-3-3-.-3-|---------------1-|-1-------1-1-.-1-|

G|-----------------|-----------------|-----------------|-----------------|
D|-----------------|-----------------|-----------------|-------5-75------|
A|-----------------|-3---.-3-3-3-.-3-|-----------------|-3-3-7-----7-5-3-|
E|-3---.-3-3-3-.-3-|-----------------|-3---.-3-3-3-.-3-|-----------------|

--CHORUS--
G|-----------------|-----------------|-----------------|-----------------|
D|-----------------|-----------------|-----------------|-----------------|
A|-3---.-3-3-3-.-3-|-----0---1---2---|-3---.-3-3-3-.-3-|-----0---1---2---|
E|-----------------|-3-3---3---3---3-|-----------------|-3-3---3---3---3-|
                                                                           (x2)
G|-----------------|-----------------|-----------------|-----------------|
D|-----------------|-----------------|-----------------|-----------------|
A|-3---.-3-3-3-.---|-----0---1---2---|-3---.-3-3-3-.-3-|-----0---1---2---|
E|---------------3-|(3)3---3---3---3-|-----------------|-3-3---3---3---3-|

G|-----------------|-----------------|-----------------|-----------------|
D|-----------------|-----------------|-----------------|-----------------|
A|-3---.-3-3-3-.-3-|-----0---1---2---|-3---.-3-3-3-.-3-|-----0---1---2---|
E|-----------------|-3-3---3---3---3-|-----------------|-3-3---3---3---3-|

G|-----------------|-----------------|-----------------|-----------------|
D|-----------------|-----------------|-----------------|-----------------|
A|-3---.-3-3-3-.---|-----0---1---2---|-3---.-3-3-3-.-3-|-3-3-.-3-3-3-.-3-|
E|---------------3-|(3)3---3---3---3-|-----------------|-----------------|

--OUTRO--
G|-----------------|-----------------|-----------------|-----------------|
D|-----------------|-----------------|-----------------|-----------------|
A|-3---------------|-----------------|-3---------------|-----------------|
E|---------------3-|-3---------------|---------------1-|-1---------------|

G|-----------------|-----------------|-----------------|-----------------|
D|-----------------|-----------------|-----------------|-----------------|
A|-3---------------|-----------------|-3---------3-.---|-----------------|
E|---------------3-|-3---------------|---------------1-|-1---------------|

-----------------------------------------------------------------------------
                            9. NEVER GET OVER YOU
-----------------------------------------------------------------------------

95 b.p.m.

--INTRO--
G|-----------------|-----------------|-----------------|-----------------|
D|-----------------|-----------------|-----------------|-----------------|
A|-5---------------|-----------------|-5---------------|-------------1/4-|
E|---------------3-|(3)----------6---|--------------6--|-----------------|

--VERSE 1--
G|-----------------|-----------------|-----------------|-----------------|
D|-----------------|-----------------|-----------------|-----------------|
A|-5---------------|---------------5-|-5---------------|-.---------4-4---|
E|-----------------|-3---------------|-----------------|---3-3-6-6-------|

G|-----------------|-----------------|-----------------|-----------------|
D|-----------------|-----------------|-----------------|--------/9-7-4---|
A|-5---------------|---------------5-|-5---------------|(5)--.---------5-|
E|-----------------|-3---------------|-----------------|-----------------|

--CHORUS 1--
G|-----------------|-----------------|-----------------|-----------------|
D|-----------------|-----------------|-----------------|-----------------|
A|-7---.-7-7---.-7-|---------4---7---|-5---.-5-5---.-5-|-------------4-4-|
E|-----------------|-5---.-5---5---5-|-----------------|-3---.-3-6-6-----|

G|---------------/-|-----------------|-----------------|
D|---------------35|-.---------------|-5---------------|
A|-5---.-5-5---.---|---5-.-----------|-----------------|
E|-----------------|-------3---------|-----------------|

G|-----------------|-----------------|-----------------|-----------------|
D|-----------------|-----------------|-----------------|-----------------|
A|-5---------------|-------------1/4-|-5---------------|---------------4-|
E|-----------------|-3---------------|-----------------|-3-------.-6-.---|

--VERSE 2--
G|-----------------|-----------------|-----------------|-----------------|
D|-----------------|-----------------|-----------------|-----------------|
A|-5---------(5)\4-|---------------5-|-5---------------|-.-----4-4-7-7-5-|
E|-----------------|-3---------------|-----------------|---6-6-----------|

G|-----------------|-----------------|-----------------|-----------------|
D|-----------------|-----------------|-----------------|--------/9-7-4---|
A|-5---------------|---------------5-|-5---------------|-5------------55-|
E|-----------------|-3---------------|-----------------|-----------------|

--CHORUS 2--
G|-----------------|-----------------|-----------------|-----------------|
D|---------------\-|-----------------|---------------\-|-----------------|
A|-7---.-7-7---.-74|---------4---7---|-5---.-5-5---.-53|-------------4---|
E|-----------------|-5---.-5---5---5-|-----------------|-3---.-3-6-3---6-|

G|---------------/-|-----------------|-----------------|-----------------|
D|---------------35|-.---------------|-5---------------|---------------\-|
A|-5---.-5-5-5-.---|---5-.-----------|-----------------|-5---.---5-5-.-54|
E|-----------------|-------3---------|-----------------|-----------------|

--BRIDGE--
G|-----------------|-----------------|-----------------|-----------------|
D|-----------------|-----------------|-2-2-------------|-----------------|
A|-------------1---|-2---.-2-2-2-.-2-|-----5-5-4-4-2-2-|-5---.-5-5-5-.-5-|
E|-2---.-2-2-2---2-|-----------------|-----------------|-----------------|

G|-----------------|-----------------|-----------------|-----------------|
D|-----------------|-----------------|-----------------|-2---.-2-2-2-.-2-|
A|-----------------|-2---.-2-2-2-.-2-|-2-2-.-2-2-2-.-2-|-----------------|
E|-2---.-2-2-2-.-2-|-----------------|-----------------|-----------------|

G|-----------------|-----------------|-----------------|-----------------|
D|-2---.-2-2-2-.-2-|--------------/8-|-7-5-------------|-----------------|
A|-----------------|-----------------|-------5---------|-5---.-5-5-5-.-4-|
E|-----------------|-3---.-3-3-3-.---|-----------6-5-3-|-----------------|

G| |---------| |-----------------|
D|2|---------|4|-----------------|
A|4|-4-5-.-5-|4|-----------------|
E| |---------| |-3---------------|

--VERSE 3--
G|-----------------|-----------------|-----------------|-----------------|
D|-----------------|-----------5-----|---------------\-|-----------------|
A|-5-------5-5-.-5-|-----4-7-4---7-4-|-5-------5-5-.-54|---------------5-|
E|-----------------|-6---------------|-----------------|-3-------3-3-.---|

G|-----------------|-------------\---|
D|-----------------|-----------7-97--|
A|-5-----5-5-5-.---|-5---.--/9-----9-|
E|-----------------|-----------------|

--CHORUS 3--
G|-----------------|-----------------|-----------------|-----------------|
D|-----------------|-----------------|-----------------|-----------------|
A|-7---.-7-7---.-7-|---------4---7---|-5---.-5-5---.-5-|-------------4-4-|
E|-----------------|-5---.-5---5---5-|-----------------|-3---.-3-6-6-----|

G|-----------------|-----------------|-----------------|
D|--------------/5-|-.---------------|-5---------------|
A|-5---.-5-5-5-.---|---5-.-----------|-----------------|
E|-----------------|-------3---------|-----------------|

G|-----------------|-----------------|-----------------|-----------------|
D|-----------------|-----------5-5-\-|--------------/5-|-.---------------|
A|-5---.-5-5-5-.---|---4-4/7-7-------|-5---.-5-5-5-.---|---5-.-----------|
E|---------------6-|-6---------------|-----------------|-------3---------|

G|-----------------|-----------------|
D|-----------------|-5-5-.-5-----.---|
A|-----------------|-----------------|
E|-3---.-3-3-3-.---|---------------3-|

--OUTRO--
G|-----------------|-----------------|-----------------|-----------------|
D|-----------------|-----------------|---------------\-|-----------------|
A|-5---.-5-5---.-5-|-----------4-4-4-|-5---.-5-5-5-.-54|-----------4-4-4-|
E|-----------------|-3-3-3-6-6-------|-----------------|-3-3-3-6-6-------|

G|-----------------|---------9h11p9--6---------------|-----------------|
D|---------------\-|---------------------8---5-------|-----------------|
A|-5---.-5-5-5-.-54|-----------------------------7---|-5---------------|
E|-----------------|-3---3---------------------------|-----------------|

-----------------------------------------------------------------------------
                 10. BETWEEN THE DEVIL AND THE DEEP BLUE SEA
-----------------------------------------------------------------------------

121 b.p.m.

-Starts at 0:39.
-It should be played with triplets and stacatto.

--CHORUS 1--
G|-2-.-2-----------|-----------------|-----------------|-----------------|
D|---------4-.-4---|---------2-------|-----------------|---------2-.-2---|
A|-----------------|-2-.-2-----2-----|-0-.-0-----------|-2-.-2-----------|
E|-----------------|-------------0---|---------2-.-2---|-----------------|

G|-----------------|---------0-.-0-.-|-----3-.-0-.-----|-----------------|
D|-----------------|-0-.-0-.---------|-1-.---------1---|-------------1-3-|
A|-3---3---0---0---|-----------------|-----------------|---------3-3-----|
E|-----------------|-----------------|---------------3-|-3-.-3-.---------|

--VERSE 1--
G|-----------------|-----------------|-----------------|-----------------|
D|-3---.---0-------|-------------1-3-|-3-------0-------|-------------1-3-|
A|-----------------|---------3-3-----|-----------------|---------3-3-----|
E|-----------------|-3---------------|-----------------|-3---------------|

G|-----------------|-----------------|-----------------|-----------------|
D|-3-------1-------|-0---------------|-----------------|-3---.-1---------|
A|-----------------|---------4-------|-3-------.-3-3---|---------3-.-3-3-|
E|-----------------|-----------------|-----------------|-----------------|

--GUITAR SOLO--
G|-----------------|-----------------|-----------------|-----------------|
D|-3-.-3-.-0-.-0-.-|-----------------|-3-.-3-.-0-.-0-.-|---------------3-|
A|-----------------|---------3---3---|-----------------|---------3---3---|
E|-----------------|-3---3-----------|-----------------|-3-.-3-----------|

G|-----2-.-5-.-----|-----------------|-----------------|---------5---5---|
D|-3-.---------3-.-|-----------------|-----------------|-3---3-----------|
A|-----------------|-1-.-1-.-4-.-4-.-|-3---3-.-3---3-.-|-----------------|
E|-----------------|-----------------|-----------------|-----------------|

--PIANO SOLO--
G|-----------------|-----------------|-----------------|-----------------|
D|-3---3---0---0---|-----------------|-3---3---0---0---|---------------3-|
A|-----------------|---------3---3---|-----------------|---------3---3---|
E|-----------------|-3-.-3-----------|-----------------|-3---3-----------|

G|-----------------|-----------------|-----------------|-----------------|
D|-----------------|-----------------|-----------------|-3-.-3-.-3-.-3-3-|
A|---------0---0---|-1---1---4---4---|-3---3---3---3---|-----------------|
E|-1---1-----------|-----------------|-----------------|-----------------|

--CHORUS 2--
G|-2---.-----------|-----------------|-----------------|-----------------|
D|---------4---.---|---------2-------|-----------------|---------2-.-2-.-|
A|-----------------|-2---.-2---------|-0---0-.---------|-2---.-2---------|
E|-----------------|-------------0---|---------2---.---|-----------------|

G|-----------------|-----------------|-----3-.-0-.-----|-0-------5-.-5-.-|
D|-----------------|-0---------------|-1-.---------1-.-|-----------------|
A|-3-------0-------|-----------------|-----------------|-----------------|
E|-----------------|---------3-------|-----------------|-----------------|

--VERSE 2--
G|-----------------|-----------------|-----------------|-----------------|
D|-3---.-3-0---.---|-------------1-3-|-3-------0---.---|-------------1-3-|
A|-----------------|---------3-3-----|-----------------|---------3-3-----|
E|-----------------|-3---------------|-----------------|-3---------------|

G|-----------------|-----------------|-----------------|-----------------|
D|-3-------1-------|-0---.-0---------|-----------------|-3-------0-------|
A|-----------------|---------4-------|-3-------3-.-3-.-|-----------------|
E|-----------------|-----------------|-----------------|-----------------|

--OUTRO--
G|-----------------|-----------------| |---------| |[6-3-.--]--------|
D|-------0-3-.-3-.-|-----------------|2|---------|4|[------6]--------|
A|-3---------------|-1---.---4-------|4|(4)------|4|---------4-.-1---|
E|-----------------|-----------------| |---------| |-----------------|

G|-----------------|-----------------|-----------------|-----------------|
D|-----------------|-----------------|-----------------|-3---.-----------|
A|-----------------|-----------------|-----1-2-3-.-3-.-|-----------------|
E|-3-----------.---|-3-----------.---|-3---------------|---------1-------|

-----------------------------------------------------------------------------
                        11. ROCKING CHAIR IN HAWAII
-----------------------------------------------------------------------------

114 b.p.m.

--INTRO--
G|-----------------|-----------------|-----------------|-----------------|
D|-----------------|-----------------|-----------------|-----------------|
A|-5---------------|-----------------|-5---------------|-5---------------|
E|-----------------|-5---------------|-----------------|-----------------|

--VERSE 1--
G|-----------------|-----------------|-----------------|-----------------|
D|-----------------|-----------------|-----------------|-----------------|
A|-5-------.-------|-5-------.---3---|-5---------------|-5-------.---3---|
E|-----------------|-----------5-----|-----------------|-----------5-----|

G|-----------------|-----------------|-----------------|-----------------|
D|-----------------|-----------------|-----------------|-----------------|
A|-5---------------|-----------------|-------------3---|-5-------.---3---|
E|-----------------|-3---------------|-3-------.-5-----|-----------5-----|

G|-----------------|-----------------|-----------------|-----------------|
D|-----------------|-----------------|-----------------|-----------------|
A|-5-------.-------|-----------------|---------.---3---|-----------------|
E|-----------0-3---|-5-----------2-.-|-5---------5-----|-5-------.-------|

G|-----------------|-----------------|
D|-----------------|-----------------|
A|-5-------.---3---|-5-------.---3---|
E|-----------5-----|-----------5-----|

--CHORUS 1--
G|-----------------|-----------------|-----------------|-----------------|
D|-----------------|-----------------|-----------------|-----------------|
A|-5-------.-------|-------------3---|-5-------.---3---|-5-------.---3---|
E|-----------3-4---|-5-------.-5-----|-----------5-----|-----------5-----|

--VERSE 2--
G|-----------------|-----------------|-----------------|-----------------|
D|-----------------|-----------------|-----------------|-----------------|
A|-5---------------|-5-------.---3---|-5---------------|-5---------------|
E|-----------------|-----------5-----|-----------------|-----------------|

G|-----------------|-----------------|-----------------|-----------------|
D|-----------------|-----------------|-----------------|-----------------|
A|-5-------.---3---|-----------------|-----------------|-5-------.---3---|
E|-----------5-----|-3---------------|-3---------------|-----------5-----|

G|-----------------|-----------------|-----------------|-----------------|
D|-----------------|-----------------|-----------------|-----------------|
A|-5-----------3---|-----------------|-----------------|-------------3---|
E|-----------------|-5-------.-0-3---|-5-------.-0-3---|-5-------.-5-----|

G|-----------------|-----------------|
D|-----------------|-----------------|
A|-5-------.---3---|-5-------.---3---|
E|-----------5-----|-----------5-----|

--CHORUS 2--
G|-----------------|-----------------|-----------------|-----------------|
D|-----------------|-----------------|-----------------|-------------3/4-|
A|-5---------------|-------------3---|-5-------.---3---|-5-------.-5-----|
E|-------------3---|-5-------.-5-----|-----------5-----|-----------------|

G|-----------------|-----------------|-----------------|-----------------|
D|-5---------------|-----------------|-----------------|-----------------|
A|-------------3-4-|-5---------------|-------------3-4-|-5---------------|
E|-----------------|-------------3-4-|-5---------------|-----------------|

G|-----------------|
D|-----------------|
A|-5-------.---3---|
E|-----------5-----|

--VERSE 3--
G|-----------------|-----------------|-----------------|-----------------|
D|-----------------|-----------------|---------------5-|-----------------|
A|-5---------------|-5-------.---3---|-5---------------|-5-------.---3---|
E|-----------------|-----------5-----|-----------------|-----------5-----|

G|-----------------|-----------------|-----------------|-----------------|
D|-----------------|-----------------|-----------------|-----------------|
A|-5-------.-5-3---|-----------------|-----------------|-5---------------|
E|-----------------|-3---------------|-3---------------|-----------------|

G|-----------------|-----------------|-----------------|-----------------|
D|-----------------|-----------------|-----------------|-----------------|
A|-5---------------|-----------------|-----------------|-------------3---|
E|---------.-0-3---|-5---------------|-5-------.-0-3---|-5-------.-5-----|

G|-----------------|-----------------|
D|-----------------|-----------------|
A|-5-------.---3---|-5-------.---3---|
E|-----------5-----|-----------5-----|

--CHORUS 3--
G|-----------------|-----------------|-----------------|-----------------|
D|-----------------|-----------------|-----------------|-----------------|
A|-5---------------|-------------3-4-|-5-----------3-4-|-5-----------5-.-|
E|-------------3-4-|-5-------.-5-----|-----------------|-----------------|

G|-----------------|-----------------|-----------------|-----------------|
D|-5---------------|-----------------|-----------------|-----------------|
A|-------------3-4-|-5---------------|-------------3-4-|-5-------5-------|
E|-----------------|-------------3-4-|-5-------.-5-----|-----------------|

G|-----------------|
D|-----------------|
A|-5-------.---3-.-|
E|-----------5-----|

--VERSE 4--
G|-----------------|-----------------|-----------------|-----------------|
D|-----------------|-----------------|-----------------|-----------------|
A|-5-------.-------|-5-------.---3-.-|-5---------------|-5-------.---3-.-|
E|-----------------|-----------5-----|-----------------|-----------5-----|

G|-----------------|-----------------|-----------------|-----------------|
D|-----------------|-----------------|-----------------|-----------------|
A|-5-------.-5-3---|-----------------|-----------------|-5-------.---3---|
E|-----------------|-3-------.-------|-3-------.-------|-----------5-----|

G|-----------------|-----------------|-----------------|-----------------|
D|-----------------|-----------------|-----------------|-----------------|
A|-5-------.---3---|-----------------|-----------------|-------------3---|
E|-----------5-----|-5-------.-0-3---|-5-------.-0-3---|-5-------.-5-----|

G|-----------------|-----------------|
D|-----------------|-----------------|
A|-5-------.---3---|-5-------.---3---|
E|-----------5-----|-----------5-----|

--OUTRO--
G|-----------------|-----------------|-----------------|-----------------|
D|-----------------|-----------------|-----------------|-----------------|
A|-5---------------|-------------3-4-|-5---------------|-5---------------|
E|-------------3-4-|-5-------.-5-----|-----------------|-----------------|

-----------------------------------------------------------------------------
                             12. BRAINWASHED
-----------------------------------------------------------------------------

108 b.p.m.

--INTRO--
G|-----------------|-----------------|-----------------|-----------------|
D|-----------------|-----------------|-----------------|-----------------|
A|-----3-.---------|---------5-5-5-5-|-----3-.---------|---------3-3-3-3-|
E|-5-.-----3---.-1-|(1)1-0-0---------|-5-.-----3---.-1-|(1)1-1-1---------|

G|-----------------|-----------------|-----------------|-----------------|
D|-----------------|-----------------|-----------------|-----------------|
A|-----3-.---------|---------5-5-5-5-|-----3-.---------|-----------------|
E|-5-.-----3---.-1-|(1)1-0-0---------|-5-.-----3---.-1-|(1)----1-1-----3-|

G|-----------------|-----------------|
D|-----------------|-----------------|
A|-----------------|-----------------|
E|-3---.-3-3---.-3-|(3)--.-3-3---.---|

--VERSE 1--
G|-----------------|-----------------|-----------------|-----------------|
D|-----------------|-----------------|-----------------|-----------------|
A|-3-----------3-.-|-----------------|-1-----------1-1-|-.---------------|
E|-----------------|-1-----1-1---.---|-----------------|---1-1-1-1---3-.-|

G|-----------------|-----------------|-----------------|-----------------|
D|-----------------|-----------------|-----------------|-----------------|
A|-3-----------3-.-|-----------------|-1------------\0-|---------5-----5-|
E|-----------------|-1-----1-1---.---|-----------------|-1-----1---------|

--CHORUS 1--
G|-----------------|-----------------|-----------------|-----------------|
D|-----------------|-----------------|-----------------|-----------------|
A|-----3-.---------|---------5-5-5-5-|-----3-.---------|---------3-3-3-3-|
E|-5-.-----3---.-1-|(1)1-0-0---------|-5-.-----3---.-1-|(1)----1---------|

G|-----------------|-----------------|-----------------|-----------------|
D|-----------------|-----------------|-----------------|-----------------|
A|-----3-.---------|---------5-5-5-5-|-----3-.---------|-----------------|
E|-5-.-----3---.-1-|(1)1-0-0---------|-5-.-----3---.-1-|(1)----1-1-----3-|

G|-----------------|-----------------|
D|-----------------|-----------------|
A|-----------------|-----------------|
E|-3---.-3-3---.-3-|(3)--.-3-3---.---|

--VERSE 2--
G|-----------------|-----------------|-----------------|-----------------|
D|-----------------|-----------------|-----------------|-----------------|
A|-3-----3-3-------|-----------------|-1-----1-1-----1-|-.---------------|
E|-----------------|-1-----1-1---.---|-----------------|---1-1-1-1-.-3-.-|

G|-----------------|-----------------|-----------------|-----------------|
D|-----------------|-----------------|-----------------|-3---2-----------|
A|-3-----3-3---.---|-----------------|-1-----1-1---.---|---------5---3---|
E|-----------------|-1-----1-1---.---|---------------1-|-----------------|

--CHORUS 2--
G|-----------------|-----------------|-----------------|-----------------|
D|-----------------|-----------------|-----------------|-----------------|
A|-----3-.---------|---------5-5-5-5-|-----3-.---------|---------3-3-3-3-|
E|-5-.-----3---.-1-|(1)1-0-0---------|-5-.-----3---.-1-|(1)1-1-1---------|

G|-----------------|-----------------|-----------------|-----------------|
D|-----------------|-----------------|-----------------|-----------------|
A|-----3-.---------|---------5-5-5-5-|-----3-.---------|-----------------|
E|-5-.-----3---.-1-|(1)1-0-0---------|-5-.-----3---.-1-|-1---.-1-1-----3-|

G|-----------------|-----------------|-----------------|-----------------|
D|-----------------|-----------------|-----------------|-----------------|
A|-----------------|-----------------|-----------------|-----------------|
E|-3---.-3-3---.-3-|(3)--.-3-3---.-3-|(3)--.-3-3---.-3-|(3)--.-3-3-------|

Back at 2:30.

--VERSE 3--
G|-----------------|-----------------|-----------------|-----------------|
D|-----------------|-----------------|-----------------|-----------------|
A|-3-----3-3-----3-|-----------------|-1-----1-1-----1-|-.---------------|
E|-----------------|-1-----1-1-----1-|-----------------|---1-1---1---3-.-|

G|-----------------|-----------------|-----------------|-----------------|
D|-----------------|-----------------|-----------------|-----------------|
A|-3-----3-3-----3-|-----------------|-1-----1-1-----1-|---------5-------|
E|-----------------|-1-----1-1-----1-|-----------------|-1--\0-0---------|

--VERSE 4--
G|-----------------|-----------------|-----------------|-----------------|
D|-----------------|-----------------|-----------------|-----------------|
A|-3-----3-3-----3-|-----------------|-1-----1-1-----1-|-.---------------|
E|-----------------|-1-----1-1-----1-|-----------------|---1-1---1---3-.-|

G|-----------------|-----------------|-----------------|-----------------|
D|-----------------|-----------------|-----------------|-----------------|
A|-3-----3-3-----3-|-----------------|-1-----1-1-----0-|---------5---3---|
E|-----------------|-1-----1-1-----1-|-----------------|-1--\0-0---------|

--CHORUS 3--
G|-----------------|-----------------|-----------------|-----------------|
D|-----------------|-----------------|-----------------|-----------------|
A|-----3-.---------|---------5-5-5-5-|-----3-.---------|---------3-3-3-3-|
E|-5-.-----3---.-1-|(1)1-0-0---------|-5-.-----3---.-1-|(1)1-1-1---------|

G|-----------------|-----------------|-----------------|-----------------|
D|-----------------|-----------------|-----------------|-----------------|
A|-----3-.---------|---------5-5-5-5-|-----3-.---------|-----------------|
E|-5-.-----3---.-1-|(1)1-0-0---------|-5-.-----3---.-1-|-1---.-1-1-----1-|

G|-----------------|-----------------|
D|-----------------|-----------------|
A|-----------------|-----------------|
E|-3---.-3-3---.-3-|(3)3-3-3-3---.---|

--CHORUS 4--
G|-----------------|-----------------|-----------------|-----------------|
D|-----------------|-----------------|-----------------|-----------------|
A|-----3-.---------|---------5-5-5-5-|-----3-.---------|---------3-3-3-3-|
E|-5-.-----3---.-1-|(1)1-0-0---------|-5-.-----3---.-1-|(1)1-1-1---------|

G|-----------------|-----------------|-----------------|-----------------|
D|-----------------|-----------------|-----------------|-----------------|
A|-----3-.---------|---------5-5-5-5-|-----3-.---------|-----------------|
E|-5-.-----3---.-1-|(1)1-0-0---------|-5-.-----3---.-1-|-1---.-1-1-----1-|

G|-----------------|-----------------|-----------------|-----------------|
D|-----------------|-----------------|-----------------|-----------------|
A|-----------------|-----------------|-----------------|-----------------|
E|-3---.-3-3---.-3-|(3)--.-3-3---.-3-|(3)--.-3-3---.-3-|(3)--.-3-3-------|



Buenos Aires. March, 2016.

soldync@yahoo.com.ar

            
            
Suggest correction
Creating personal tab
Creating personal tab
You can edit any tab online and save it as your Personal.

You can edit, replace or remove any tab part or add personal notes – all changes will be seen only by you.

Personal tabs can be accessed anytime from any device, even offline.
Learn more »
Give kudos to tab author, rate the tab!
1 2 3 4 5
comments
print report bad tab
guest
You may want to rate the tab now too:
select rating
Wanna post a correction for this tab? Suggest correction