Oops, an error
Loading. Please wait.

Cheer Down Bass Tab

909 views 1 this week
no commentswrite comment
1 2 3 4 5
please rate
add to favorites
launch autoscroll
font size
0
reset
guitar tuner
Autoscroll
slow
fast
+/-
esc
set tempo
stop
Help us to improve Ultimate-Guitar.com Take our survey!
×
Author
CHEER DOWN


INTRO


G|---------------------------------|---------------------------------|
D|---------------------------------|---------------------------------|
A|-5---5-------5---5---5-------5---|-5-----------5---5---5-------5---|
E|---------------------------------|---------------------------------|



G|---------------------------------|---------------------------------|
D|---------------------------------|---------------------------------|
A|---------------------------------|---------------------------------|
E|-3---3-------3---3---3-------3---|-3---3-------3---5---5---5---5---|



G|---------------------------------|---------------------------------|
D|---------------------------------|---------------------------------|
A|-5-----------5---5---5-------5-5-|-5---5-------5---5---5---5---5---|
E|---------------------------------|---------------------------------|



G|---------------------------------|---------------------------------|
D|---------------------------------|---------------------------------|
A|---------------------------------|---------------------------------|
E|-3-----------3---3---3-------3---|-3---3---3---3---5---5---5---5---|


VERSE


G|---------------------------------|---------------------------------|
D|---------------------------------|---------------------------------|
A|-5-----------5---5---5-------5---|-5---5-------5---5---5-------5---|
E|---------------------------------|---------------------------------|



G|---------------------------------|---------------------------------|
D|---------------------------------|---------------------------------|
A|-3---3-------3---3---3-------3---|---------------------------------|
E|---------------------------------|-3-----------3---3---3-------3---|



G|---------------------------------|---------------------------------|
D|---------------------------------|---------------------------------|
A|-5-----------5---5---5-------5---|---------------------------------|
E|---------------------------------|-3-----------3---3---3-------3---|



G|---------------------------------|---------------------------------|
D|---------------------------------|---------------------------------|
A|-5---5-------5---5---5-------5---|-5-----------5---7---5---7-------|
E|---------------------------------|-----5---5-------------------5---|


VERSE


G|---------------------------------|---------------------------------|
D|---------------------------------|---------------------------------|
A|-5-----------5---5-----------5---|-5---5-------5---5---5-------5---|
E|---------------------------------|---------------------------------|



G|---------------------------------|---------------------------------|
D|---------------------------------|---------------------------------|
A|-3-----------3---3---3-------3---|---------------------------------|
E|---------------------------------|-3-----------3---3---3-------3---|



G|---------------------------------|---------------------------------|
D|---------------------------------|---------------------------------|
A|-5---5-------5---5---5-------5---|---------------------------------|
E|---------------------------------|-3-----------3---5---5-------5---|



G|---------------------------------|---------------------------------|
D|---------------------------------|---------------------------------|
A|-5-----------5---5---5-------5---|-5-----------5---7---5---7-------|
E|---------------------------------|-----5---5-------------------5---|


BRIDGE


G|---------------------------------|---------------------------------|
D|---------------------------------|---------------------------------|
A|---------------------------------|---------------------------------|
E|-3-----------3---3---3-------3---|-3---3-------3---3---3-------3---|



G|---------------------------------|---------------------------------|
D|---------------------------------|---------------------------------|
A|-5---5-------0---5---5-------0---|-5---5-------5---5---5---5---5---|
E|---------------------------------|---------------------------------|



G|---------------------------------|---------------------------------|
D|---------------------------------|---------------------------------|
A|---------------------------------|---------------------------------|
E|-3---3-------3---3---3-------3---|-3---3-------3---3---3---3---3---|



G|---------------------------------|---------------------------------|
D|---------------------------------|---------------------------------|
A|-5---5-------5---5---5-------5---|-5---5-------5---5---5---5---5---|
E|---------------------------------|---------------------------------|



G|---------------------------------|---------------------------------|
D|---------------------------------|-----------------5---5-------5---|
A|---------------------------------|-5-------------------------------|
E|-3-----------3---5---5-------5---|---------------------------------|



G|---------------------------------|---------------------------------|
D|---------------------------------|---------------------------------|
A|-5---5-------5---5---5-------5---|---------------------------------|
E|---------------------------------|-5---5---5---5---5---5---5---5---|


VERSE


G|---------------------------------|---------------------------------|
D|---------------------------------|---------------------------------|
A|-5---5-------5---5---5-------5---|-5---5-------5---5---5-------5---|
E|---------------------------------|---------------------------------|



G|---------------------------------|---------------------------------|
D|---------------------------------|---------------------------------|
A|-3-----------3---3---3-------3---|---------------------------------|
E|---------------------------------|-3-----------3---3---3-------3---|



G|---------------------------------|---------------------------------|
D|---------------------------------|---------------------------------|
A|-5-----------5---5---5-------5---|---------------------------------|
E|---------------------------------|-3-----------3---5-----------5---|



G|---------------------------------|---------------------------------|
D|---------------------------------|---------------------------------|
A|-5---5-------5---5---5-------5---|---------------------------------|
E|---------------------------------|-3-----------3---5-----------5---|


GUITAR SOLO


G|---------------------------------|---------------------------------|
D|---------------------------------|---------------------------------|
A|-5---5-------5---------------5---|-5---5-----------5-------5-------|
E|---------------------------------|---------------------------------|



G|---------------------------------|---------------------------------|
D|---------------------------------|---------------------------------|
A|-3-----------3---3-----------3---|---------------------------------|
E|---------------------------------|-3-----------3---3-----------3---|



G|---------------------------------|---------------------------------|
D|---------------------------------|---------------------------------|
A|-5-----------5---5---5-----------|---------------------------------|
E|---------------------------------|-3-----------3---5-----------5---|



G|---------------------------------|---------------------------------|
D|---------------------------------|---------------------------------|
A|-5---5-------5---5---5-------5---|-5-----------5---7---5---7-------|
E|---------------------------------|-----5---5-------------------5---|


BRIDGE


G|---------------------------------|---------------------------------|
D|---------------------------------|---------------------------------|
A|---------------------------------|---------------------------------|
E|-3---3-------3---3---3-------3---|-3---3-------3---3-----------3---|



G|---------------------------------|---------------------------------|
D|---------------------------------|---------------------------------|
A|-5---5-------5---5---5-------5---|-5-----------5---5---5-------5---|
E|---------------------------------|---------------------------------|



G|---------------------------------|---------------------------------|
D|---------------------------------|-----------------5-----------5---|
A|---------------------------------|-5-----------5-------------------|
E|-3-----------3---5-----------5---|---------------------------------|



G|---------------------------------|---------------------------------|
D|---------------------------------|---------------------------------|
A|-5-----------5---5---5-------5---|---------------------------------|
E|---------------------------------|-5---------------5---5---5---5---|


VERSE


G|---------------------------------|---------------------------------|
D|---------------------------------|---------------------------------|
A|-5-----------5---5-----------5---|-5-----------5---5-----------5---|
E|---------------------------------|---------------------------------|



G|---------------------------------|---------------------------------|
D|---------------------------------|---------------------------------|
A|-3-----------3---3-----------3---|---------------------------------|
E|---------------------------------|-3-----------3---3-----------3---|



G|---------------------------------|---------------------------------|
D|---------------------------------|---------------------------------|
A|-5-----------5---5-----------5---|---------------------------------|
E|---------------------------------|-3-----------3---5-----------5---|



G|---------------------------------|---------------------------------|
D|---------------------------------|---------------------------------|
A|-5-----------5---5---5-------5---|---------------------------------|
E|---------------------------------|-3-----------3---5---5-------5---|



G|---------------------------------|---------------------------------|
D|---------------------------------|---------------------------------|
A|-5---------------5-----------5---|---------------------------------|
E|---------------------------------|-3-----------3---5-----------5---|


GUITAR SOLO


G|---------------------------------|---------------------------------|
D|---------------------------------|---------------------------------|
A|-5-----------5---5---5-------5---|-5---5-------5---5---5-------5---|
E|---------------------------------|---------------------------------|



G|---------------------------------|---------------------------------|
D|---------------------------------|---------------------------------|
A|---------------------------------|---------------------------------|
E|-3-----------3---3---3-------3---|-3---3-------3---3---3-------3---|



G|---------------------------------|---------------------------------|
D|---------------------------------|---------------------------------|
A|-5-----------5---5---5-------5---|-5---5-------5---5---5---5---5---|
E|---------------------------------|---------------------------------|



G|---------------------------------|---------------------------------|
D|---------------------------------|---------------------------------|
A|---------------------------------|---------------------------------|
E|-3---------------3-----------3---|-3---3-------3---3---3---3---3---|



G|---------------------------------|---------------------------------|
D|---------------------------------|---------------------------------|
A|-5---------------5---5-------5---|-5---5-------5---5---5-------5---|
E|---------------------------------|---------------------------------|



G|---------------------------------|---------------------------------|
D|---------------------------------|---------------------------------|
A|---------------------------------|---------------------------------|
E|-3-----------3---3---3-------3---|-3-----------3---3---3-------3---|



G|---------------------------------|---------------------------------|
D|---------------------------------|---------------------------------|
A|-5---5-------5---5---5-------5---|-5---5-------5---5---5-------5---|
E|---------------------------------|---------------------------------|



G|---------------------------------|---------------------------------|
D|---------------------------------|---------------------------------|
A|---------------------------------|---------------------------------|
E|-3---------------3---3-------3---|-3---3-------3---3-----------3---|



G|---------------------------------|---------------------------------|
D|---------------------------------|---------------------------------|
A|-5-----------5---5---5-------5---|-5---5-------5---5---5-------5---|
E|---------------------------------|---------------------------------|



G|---------------------------------|---------------------------------|
D|---------------------------------|---------------------------------|
A|---------------------------------|---------------------------------|
E|-3-----------3---3---3-------3---|-3---3-------3---3---3-------3---|



G|---------------------------------|---------------------------------|
D|---------------------------------|---------------------------------|
A|-5-----------5---5---5-----------|-5---5-------5---5-----------5---|
E|---------------------------------|---------------------------------|



G|---------------------------------|---------------------------------|
D|---------------------------------|---------------------------------|
A|---------------------------------|---------------------------------|
E|-3-----------3---3---3-------3---|-3---3-------3---3---3-------3---|



G|---------------------------------|---------------------------------|
D|---------------------------------|---------------------------------|
A|-5-----------5---5-----------5---|-5-----------5---5---5-------5---|
E|---------------------------------|---------------------------------|



G|---------------------------------|---------------------------------|
D|---------------------------------|---------------------------------|
A|---------------------------------|---------------------------------|
E|-3-----------3---3---3-------3---|-3-----------3---3---3-------3---|



G|---------------------------------|---------------------------------|
D|---------------------------------|---------------------------------|
A|-5---5-------5---5---5-------5---|-5---5-------5---5---5-------5---|
E|---------------------------------|---------------------------------|



G|---------------------------------|---------------------------------|
D|---------------------------------|---------------------------------|
A|---------------------------------|---------------------------------|
E|-3---3-------3---3---3-------3---|-3---3-------3---3---3-------3---|



G|---------------------------------|---------------------------------|
D|---------------------------------|---------------------------------|
A|-5-----------5---5---5-------5---|-5-----------5---5---5-------5---|
E|---------------------------------|---------------------------------|



G|---------------------------------|---------------------------------|
D|---------------------------------|---------------------------------|
A|---------------------------------|---------------------------------|
E|-3-----------3---3---3-------3---|-3---3-------3---3---3-------3---|



G|---------------------------------|---------------------------------|
D|---------------------------------|---------------------------------|
A|-5---5-------5---5---5-------5---|-5---5-------5---5---5-------5---|
E|---------------------------------|---------------------------------|



G|---------------------------------|---------------------------------|
D|---------------------------------|---------------------------------|
A|---------------------------------|---------------------------------|
E|-3-----------3---3---3-------3---|-3-----------3---3---3-------3---|



G|---------------------------------|---------------------------------|
D|---------------------------------|---------------------------------|
A|-5-----------5---5---5-------5---|-5---5-------5---5-----------5---|
E|---------------------------------|---------------------------------|



G|---------------------------------|---------------------------------|
D|---------------------------------|---------------------------------|
A|---------------------------------|---------------------------------|
E|-3---3-------3---3---3-------3---|-3---3-------3---3---3---3---3---|



G|---------------------------------|---------------------------------|
D|---------------------------------|---------------------------------|
A|-5-------------------------------|---------------------------------|
E|---------------------------------|---------------------------------|
Suggest correction
Give kudos to tab author, rate the tab!
1 2 3 4 5
comments
print report bad tab
guest
You may want to rate the tab now too:
select rating
Wanna post a correction for this tab? Suggest correction