Oops, an error
Loading. Please wait.

Cloud Nine Bass Tab

841 views 1 this week
no commentswrite comment
1 2 3 4 5
please rate
add to favorites
launch autoscroll
font size
0
reset
guitar tuner
Autoscroll
slow
fast
+/-
esc
set tempo
stop
Help us to improve Ultimate-Guitar.com Take our survey!
×
Author
CLOUD NINE


INTRO

  t=94
G|---------------------------------|---------------------------------|
D|---------------------------------|---------------------------------|
A|---------------------------------|---------------------------------|
E|---------------------------------|-3---------------3---------------|



G|---------------------------------|---------------------------------|
D|---------------------------------|---------------------------------|
A|---------------------------------|---------------------------------|
E|-3---------------3-------------3-|-3---------------3---------------|



G|---------------------------------|---------------------------------|
D|---------------------------------|---------------------------------|
A|---------------------------------|---------------------------------|
E|-3---------------3-------------3-|-3---------------3---------------|



G|---------------------------------|---------------------------------|
D|---------------------------------|---------------------------------|
A|---------------------------------|-----------------5---------------|
E|-3---------------3---------------|-3-------------------------------|



G|---------------------------------|---------------------------------|
D|---------------------------------|---------------------------------|
A|---------------------------------|---------------------------------|
E|-3---------------3---------0-2---|-3-----------2---3---------------|



VERSE


G|---------------------------------|---------------------------------|
D|---------------------------------|---------------------------------|
A|---------------------------------|---------------------------------|
E|-3---------------3---------------|-3---------------3---------------|



G|---------------------------------|---------------------------------|
D|---------------------------------|---------------------------------|
A|---------------------------------|---------------------------------|
E|-3---------------3---------------|-3---------------3---------------|



G|---------------------------------|---------------------------------|
D|---------------------------------|---------------------------------|
A|---------------------------------|---------------------------------|
E|-3---------------3---------------|-3---------------3---------------|



G|---------------------------------|---------------------------------|
D|---------------------------------|---------------------------------|
A|-----------------5---------------|---------------------------------|
E|-3-------------------------------|-3---------------3---------------|



G|---------------------------------|
D|---------------------------------|
A|---------------------------------|
E|-3-----------2---3---------------|



VERSE


G|---------------------------------|---------------------------------|
D|---------------------------------|---------------------------------|
A|---------------------------------|---------------------------------|
E|-3---------------3---------------|-3---------------3---------------|



G|---------------------------------|---------------------------------|
D|---------------------------------|---------------------------------|
A|---------------------------------|---------------------------------|
E|-3---------------3---------------|-3---------------3---------------|



G|---------------------------------|---------------------------------|
D|---------------------------------|---------------------------------|
A|---------------------------------|---------------------------------|
E|-3---------------3---------------|-3---------------3---------------|



G|---------------------------------|---------------------------------|
D|---------------------------------|---------------------------------|
A|-----------------5---------------|---------------------------------|
E|-3-------------------------------|-3---------------3---------------|



G|---------------------------------|
D|---------------------------------|
A|---------------------------------|
E|-3-----------2---3---------------|



VERSE


G|---------------------------------|---------------------------------|
D|---------------------------------|---------------------------------|
A|---------------------------------|---------------------------------|
E|-3-------3-------3-------3-------|-3-------3-------3-------3-------|



G|---------------------------------|---------------------------------|
D|---------------------------------|---------------------------------|
A|---------------------------------|---------------------------------|
E|-3-------3-------3-------2-------|-3-------3-------3-------3-------|



G|---------------------------------|---------------------------------|
D|---------------------------------|---------------------------------|
A|---------------------------------|---------------------------------|
E|-3-------3-------3-------2-------|-3-------3-------3-------3-------|



G|---------------------------------|---------------------------------|
D|---------------------------------|---------------------------------|
A|-----------------5-------5-------|---------------------------------|
E|-3-------3-----------------------|-3-------3-------3-------3-------|



G|---------------------------------|---------------------------------|
D|---------------------------------|---------------------------------|
A|-----------------5-------5-------|---------------------------------|
E|-3-------3-----------------------|-3-------3-------3-------3-------|



G|---------------------------------|---------------------------------|
D|---------------------------------|---------------------------------|
A|---------------------------------|---------------------------------|
E|-3-------3-------3-------3-------|-3-------3-------3-------3-------|



G|---------------------------------|
D|---------------------------------|
A|---------------------------------|
E|-3-----3-2-------3---------------|



GUITAR SOLO


G|---------------------------------|---------------------------------|
D|---------------------------------|---------------------------------|
A|---------------------------------|---------------------------------|
E|-3---3---3---3---3---3---3---3---|-3---3---3---3---3---3---3---3---|



G|---------------------------------|---------------------------------|
D|---------------------------------|---------------------------------|
A|---------------------------------|---------------------------------|
E|-3---3---3---3---3---3---3---3---|-3---3---3---3---3---3---3---3---|



G|---------------------------------|---------------------------------|
D|---------------------------------|---------------------------------|
A|---------------------------------|---------------------------------|
E|-3---3---3---3---3---3---3---3---|-3---3---3---3---3---3---3---3---|



G|---------------------------------|---------------------------------|
D|---------------------------------|---------------------------------|
A|-----------------5-------5-------|---------------------------------|
E|-3---3---3---3-------------------|-3-------3-------3-------3-------|



G|---------------------------------|
D|---------------------------------|
A|---------------------------------|
E|-3-------------2-3-------2-------|



VERSE


G|---------------------------------|---------------------------------|
D|---------------------------------|---------------------------------|
A|---------------------------------|---------------------------------|
E|-3---------------3-------2-------|-3---------------3---------------|



G|---------------------------------|---------------------------------|
D|---------------------------------|---------------------------------|
A|---------------------------------|---------------------------------|
E|-3---------------3---------------|-3---------------3---------------|



G|---------------------------------|---------------------------------|
D|---------------------------------|---------------------------------|
A|---------------------------------|---------------------------------|
E|-3---------------3---------------|-3---------------3---3-----------|



G|---------------------------------|---------------------------------|
D|---------------------------------|---------------------------------|
A|-----------------5---------------|---------------------------------|
E|-3-------------------------------|-3---------------3---------------|



G|---------------------------------|---------------------------------|
D|---------------------------------|-----------------------/-5-------|
A|-----------------5---------------|---------------------------------|
E|-3-------------------------------|-3---------------3---------------|



G|---------------------------------|---------------------------------|
D|---------------------------------|---------------------------------|
A|---------------------------------|---------------------------------|
E|-3---------3-----3-------------2-|-3---------------3---------------|



G|---------------------------------|
D|---------------------------------|
A|---------------------------------|
E|-3-----3-2-------3---------------|



OUTRO – GUITAR SOLO


G|---------------------------------|---------------------------------|
D|---------------------------------|---------------------------------|
A|---------------------------------|---------------------------------|
E|-3---------------3---------------|-3---------------3---------------|



G|---------------------------------|---------------------------------|
D|---------------------------------|---------------------------------|
A|---------------------------------|---------------------------------|
E|-3---------------3---------------|-3---------------3-------------2-|



G|---------------------------------|---------------------------------|
D|---------------------------------|---------------------------------|
A|---------------------------------|---------------------------------|
E|-3---------------3---------------|-3---------------3---------3-2---|



G|---------------------------------|---------------------------------|
D|---------------------------------|---------------------------------|
A|-----------------5-------\-------|-------------------------5-------|
E|-3-------------------------------|-3---------------3---------------|



G|---------------------------------|---------------------------------|
D|---------------------------------|---------------------------------|
A|-----------------5-------\-------|---------------------------------|
E|-3-------------------------------|-3---------------3---------------|



G|---------------------------------|---------------------------------|
D|---------------------------------|---------------------------------|
A|---------------------------------|---------------------------------|
E|-3---------------3-------2-------|-3---------------3-----3-2-------|



G|---------------------------------|---------------------------------|
D|---------------------------------|---------------------------------|
A|---------------------------------|---------------------------------|
E|-3---------3-2---3---------------|---------------------------------|
Suggest correction
Give kudos to tab author, rate the tab!
1 2 3 4 5
comments
print report bad tab
guest
You may want to rate the tab now too:
select rating
Wanna post a correction for this tab? Suggest correction