Oops, an error
Loading. Please wait.

Cockamamie Business Tab

version 2
version 2

Whole song

724 views 3 this week
1 commentread comment
1 2 3 4 5
x 3
add to favorites
launch autoscroll
font size
0
reset
how to read this tab
guitar tuner
Autoscroll
slow
fast
+/-
esc
set tempo
stop
Help us to improve Ultimate-Guitar.com Take our survey!
×
Author
This file is all my own work.If you have any corrections,mail me at:krysov@bk.ru

Cockamamie Business  
Riff1:
        Em       Am    C  H7 Em
e|-----30-------------53-52-30----------------------------------------------
B|----5---------0-----------------------------------------------------------
G|-3s4---------0-2----------------------------------------------------------
D|----------oh2-------------------------------------------------------------
A|--------------------------------------------------------------------------
E|--------------------------------------------------------------------------
Riff2:
   H7
e|--------------------------------------------------------------------------
B|--------------------------------------------------------------------------
G|--------------------------------------------------------------------------
D|-------0------------------------------------------------------------------
A|-2-2-2---2----------------------------------------------------------------
E|--------------------------------------------------------------------------

Intro:Riff1(2 times)
Em                          H7                       Em
Bust my back on the Levy - broke my strings on the BBC
          Am                         D                       H7(riff2) 
Found my chops on Eel Pie Island - paid my dues at the Marquee
             Em                       Am
Slagged off by the N.M.E. - lost my stash and my virginity
         C          H7    Em
In this Cockamamie Business
Riff1(1 time)

Got my face on Ed Sullivan - broke my heart on the Soul Train
Introduced to Bad Company - lost cells down at Brain Drain
And before I could mend - lost the missus, missed the girlfriend
In this Cockamamie Business
Riff1(2 times)

Now we like to air condition - though the air has no ozone ring
Still they're chopping down the forest for McDonalds and the Burger King
Eating cows with such persistance - doesn't offer much resistance
To this Cockamamie Business
Riff1(2 times)

There are too many things - stressing out the nervous system
Girls you used to know - fellas that may have kissed'em
Some got rabies - Some got fleas - some got incurable diseases
From this Cockamamie Business
Riff1(2 times)

Everybody's after as many points as they can get
As long as it's not them that has to pay
No one really minds the Debt
5-Star actors, tax inspectors, film producers and directors
With their Cockamamie Business
Riff1(2 times)

Well you do what you can - can't do much more than that
(No you can't do what he just said)
Some days you're pretty sharp - on other days you feel half dead
(While you make your daily bread)
Didn't want to be a star - wanted just to play guitar
In this Cockamamie Business
Riff1(7 times)
Suggest correction
Give kudos to tab author, rate the tab!
1 2 3 4 5
comments
print report bad tab
1 comment total.
0 reply
aprescott_27 268 Oct 25, 2006 08:24 PM

Sounds good. I think the last six notes of the main riff need to be taken down an octave, though.

E|-----------------|-----------------|-----------------|-----------------|-----------------|
B|---------------8-|-----------------|-----------------|-----------------|-----------------|
G|-------------9---|-9-------------4-|-----------------|-----------------|-----------------|
D|---------7/9-----|-------------5---|-7-------------8-|-5-----7-4-----5-|-----------------|
A|-----------------|--------5/7------|-----------------|-----------------|-7---------------|
E|-----------------|-----------------|-----------------|-----------------|-----------------|

That's how I learned the main riff, there are a few differences besides the fact that yours is closer to the nut. Other than that, nice.

guest
You may want to rate the tab now too:
select rating
Wanna post a correction for this tab? Suggest correction