Oops, an error
Loading. Please wait.

Fish On The Sand Bass Tab

499 views 3 this week
no commentswrite comment
1 2 3 4 5
please rate
add to favorites
launch autoscroll
font size
0
reset
guitar tuner
Autoscroll
slow
fast
+/-
esc
set tempo
stop
Help us to improve Ultimate-Guitar.com Take our survey!
×
Author
FISH ON THE SAND


George Harrison


INTRO


G|---------------------------------|---------------------------------|
D|---------------------------------|---------------------------------|
A|-0-------0-------0-------0---3---|-----3---3---3---3---3---3---3---|
E|---------------------3-----------|---------------------------------|



G|---------------------------------|---------------------------------|
D|---------------------------------|---------------------------------|
A|-0-------0-------0-------0---3---|-----3---3---3---3---3---3---3---|
E|---------------------3-----------|---------------------------------|



G|---------------------------------|---------------------------------|
D|---------------------------------|---------------------------------|
A|---------------------------------|---------------------------------|
E|-1-----------1---1---1-------1---|-3---3-------3---3---3-------3---|



VERSE


G|---------------------------------|---------------------------------|
D|---------------------------------|---------------------------------|
A|-3-----------3---3---3-------3---|---------------------------------|
E|---------------------------------|-3---3-------3---3---3-------3---|



G|---------------------------------|---------------------------------|
D|---------------------------------|---------------------------------|
A|-3---3-------3---3---3------3----|---------------------------------|
E|---------------------------------|-1-----------1---1---1-----------|



G|---------------------------------|---------------------------------|
D|-3---3-------3---2-----------2---|-0-----------0---0---0-----------|
A|---------------------------------|---------------------------------|
E|---------------------------------|---------------------------------|



G|---------------------------------|
D|---------------------------------|
A|-0-------0-------0-------0---3---|
E|---------------------3-----------|



VERSE


G|---------------------------------|---------------------------------|
D|---------------------------------|---------------------------------|
A|-3-----------3---3---3-------3---|---------------------------------|
E|---------------------------------|-3-----------3---3---3-----------|



G|---------------------------------|---------------------------------|
D|---------------------------------|---------------------------------|
A|-3---3-------3---3---3-----------|---------------------------------|
E|---------------------------------|-1-----------1---1---1-----------|



G|---------------------------------|---------------------------------|
D|-3---3-------3---2-----------2---|-0-----------0---0---------------|
A|---------------------------------|---------------------------------|
E|---------------------------------|---------------------------------|



G|---------------------------------|---------------------------------|
D|---------------------------------|---------------------------------|
A|-0-------0-------0-------0---3---|-----3---3---3-------3---3---3---|
E|---------------------3-----------|---------------------------------|



CHORUS


G|---------------------------------|---------------------------------|
D|---------------------------------|---------------------------------|
A|-0-------0-------0-------0---3---|-----3---3---3---3---3---3---3---|
E|---------------------3-----------|---------------------------------|



G|---------------------------------|---------------------------------|
D|---------------------------------|---------------------------------|
A|-0-------0-------0-------0---3---|-----3---3---3---3---3---3---3---|
E|---------------------3-----------|---------------------------------|



G|---------------------------------|---------------------------------|
D|---------------------------------|---------------------------------|
A|-0-------0-------0-------0---3---|-----3---3---3---3---3---3---3---|
E|---------------------3-----------|---------------------------------|



G|---------------------------------|---------------------------------|
D|---------------------------------|---------------------------------|
A|---------------------------------|---------------------------------|
E|-1-----------1---1-----------1---|-3-----------3---3-----------3---|



G|---------------------------------|---------------------------------|
D|---------------------------------|---------------------------------|
A|-3-----------3---3---3-------3---|-3---3-------3---3---3-----------|
E|---------------------------------|---------------------------------|



VERSE


G|---------------------------------|---------------------------------|
D|---------------------------------|---------------------------------|
A|-3-----------3---3---3-----------|---------------------------------|
E|---------------------------------|-3---3-------3---3---3-------3---|



G|---------------------------------|---------------------------------|
D|---------------------------------|---------------------------------|
A|-3-----------3---3---3-------3---|---------------------------------|
E|---------------------------------|-1-----------1---1---1-------1---|



G|---------------------------------|---------------------------------|
D|-3-----------3---2-----------2---|-0-----------0---0-------0-------|
A|---------------------------------|---------------------------------|
E|---------------------------------|---------------------------------|



G|---------------------------------|
D|---------------------------------|
A|-0-------0-------0-------0---3---|
E|---------------------3-----------|



VERSE


G|---------------------------------|---------------------------------|
D|---------------------------------|---------------------------------|
A|-3-----------3---3-----------3---|---------------------------------|
E|---------------------------------|-3-----------3---3---3-------3---|



G|---------------------------------|---------------------------------|
D|---------------------------------|-3-----------3---3---3-------3---|
A|-3-----------3---3-----------3---|---------------------------------|
E|---------------------------------|---------------------------------|



G|---------------------------------|---------------------------------|
D|-3-----------3---2-----------2---|-0-----------0---0---0-----------|
A|---------------------------------|---------------------------------|
E|---------------------------------|---------------------------------|



G|---------------------------------|---------------------------------|
D|---------------------------------|---------------------------------|
A|-0-------0-------0-------0---3---|-3---3---3---3---3---3---3---3---|
E|---------------------3-----------|---------------------------------|



CHORUS


G|---------------------------------|---------------------------------|
D|---------------------------------|---------------------------------|
A|-0-------0-------0-------0---3---|-----3---3---3---3---3---3---3---|
E|---------------------3-----------|---------------------------------|



G|---------------------------------|---------------------------------|
D|---------------------------------|---------------------------------|
A|-0-------0-------0-------0---3---|-----3---3---3---3---3---3---3---|
E|---------------------3-----------|---------------------------------|



G|---------------------------------|---------------------------------|
D|---------------------------------|---------------------------------|
A|-0-------0-------0-------0---3---|-----3---3---3---3---3---3---3---|
E|---------------------3-----------|---------------------------------|



G|---------------------------------|---------------------------------|
D|---------------------------------|---------------------------------|
A|---------------------------------|---------------------------------|
E|-1-----------1---1---1-------1---|-3-----------3---3-----------3---|



G|---------------------------------|---------------------------------|
D|---------------------------------|---------------------------------|
A|-3---3-------3---3---3-------3---|-3---3-------3---3---2---1---0---|
E|---------------------------------|---------------------------------|



VERSE


G|---------------------------------|---------------------------------|
D|---------------------------------|---------------------------------|
A|---------------------------------|---------------------------------|
E|-4-----------4---4---4-------4---|-4-----------4---4---4-------4---|



G|---------------------------------|---------------------------------|
D|---------------------------------|---------------------------------|
A|---------------------------------|---------------------------------|
E|-5-----------5---5-----------5---|-5-----------5---5---4---3---2---|



G|---------------------------------|---------------------------------|
D|-------------3---3-----------3---|-3-----------3-------2---1---0---|
A|---------------------------------|---------------------------------|
E|-1-------------------------------|---------------------------------|



G|---------------------------------|---------------------------------|
D|---------------------------------|---------------------------------|
A|-4-----------4---4-----------4---|---------------------------------|
E|---------------------------------|-3-----------3---3---3-------3---|



VERSE


G|---------------------------------|---------------------------------|
D|---------------------------------|---------------------------------|
A|-3-----------3---3---3-----------|---------------------------------|
E|---------------------------------|-3-----------3---3---3-------3---|



G|---------------------------------|---------------------------------|
D|---------------------------------|---------------------------------|
A|-3-----------3---3-----------3---|---------------------------------|
E|---------------------------------|-1-----------1---1---1-----------|



G|---------------------------------|---------------------------------|
D|-3-----------3---2-----------2---|-0-----------0---0---------------|
A|---------------------------------|---------------------------------|
E|---------------------------------|---------------------------------|



G|---------------------------------|
D|---------------------------------|
A|-0-------0-------0-------0---3---|
E|---------------------3-----------|



VERSE


G|---------------------------------|---------------------------------|
D|---------------------------------|---------------------------------|
A|-3---3-------3---3---3-------3---|---------------------------------|
E|---------------------------------|-3-----------3---3---3-------3---|



G|---------------------------------|---------------------------------|
D|---------------------------------|---------------------------------|
A|-3-----------3---3-----------3---|---------------------------------|
E|---------------------------------|-1-----------1---1---1-----------|



G|---------------------------------|---------------------------------|
D|-3-----------3---2-----------2---|-0-----------0---0---------------|
A|---------------------------------|---------------------------------|
E|---------------------------------|---------------------------------|



G|---------------------------------|---------------------------------|
D|---------------------------------|---------------------------------|
A|-0-------0-------0-------0---3---|---------3---3---3---3---3---3---|
E|---------------------3-----------|---------------------------------|



CHORUS


G|---------------------------------|---------------------------------|
D|---------------------------------|---------------------------------|
A|-0-------0-------0-------0---3---|-----3---3---3---3---3---3---3---|
E|---------------------3-----------|---------------------------------|



G|---------------------------------|---------------------------------|
D|---------------------------------|---------------------------------|
A|-0-------0-------0-------0---3---|-----3---3---3---3---3---3---3---|
E|---------------------3-----------|---------------------------------|



G|---------------------------------|---------------------------------|
D|---------------------------------|---------------------------------|
A|-0-------0-------0-------0---3---|-----3---3---3---3---3---3---3---|
E|---------------------3-----------|---------------------------------|



G|---------------------------------|---------------------------------|
D|---------------------------------|---------------------------------|
A|---------------------------------|---------------------------------|
E|-1-----------1---1-----------1---|-3-----------3---3-----------3---|



G|---------------------------------|---------------------------------|
D|---------------------------------|---------------------------------|
A|-3-----------3---3---3-------3---|-3---3-------3---3---3---3---3---|
E|---------------------------------|---------------------------------|



OUTRO


G|---------------------------------|---------------------------------|
D|---------------------------------|---------------------------------|
A|-0-------0-------0-------0---3---|-----3---3---3---3---3---3---3---|
E|---------------------3-----------|---------------------------------|



G|---------------------------------|---------------------------------|
D|---------------------------------|---------------------------------|
A|-0-------0-------0-------0---3---|-----3---3---3---3---3---3---3---|
E|---------------------3-----------|---------------------------------|



G|---------------------------------|---------------------------------|
D|---------------------------------|---------------------------------|
A|-0-------0-------0-------0---3---|-----3---3---3---3---3---3---3---|
E|---------------------3-----------|---------------------------------|



G|---------------------------------|---------------------------------|
D|---------------------------------|---------------------------------|
A|---------------------------------|---------------------------------|
E|-1-----------1---1---1-------1---|-3-----------3---3-----------3---|



G|---------------------------------|---------------------------------|
D|---------------------------------|---------------------------------|
A|-3---3-------3---3---3-------3---|-3---3-------3---3---3-------3---|
E|---------------------------------|---------------------------------|



G|---------------------------------|---------------------------------|
D|---------------------------------|---------------------------------|
A|---------------------------------|---------------------------------|
E|-1-----------1---1---1-------1---|-3-----------3---3-----------3---|



G|---------------------------------|---------------------------------|
D|---------------------------------|---------------------------------|
A|-3-----------3---3-----------3---|-3-----------3---3---------------|
E|---------------------------------|---------------------------------|
Suggest correction
Give kudos to tab author, rate the tab!
1 2 3 4 5
comments
print report bad tab
guest
You may want to rate the tab now too:
select rating
Please do not post tabs as comments. Select "correction" instead!