Oops, an error
Loading. Please wait.
We have Chord Pro version of Here Comes The Sun.
It's the closest thing you can get to the original song and it has interactive parts. Check out the tab »
×
3,082 views 12 this week
no commentswrite comment
1 2 3 4 5
x 6
add to favorites
×
Save as Personal and add changes to this tab that will be seen only by you. Learn more ›
×
You can save this tab as Personal to edit and correct it or add notes. All changes will be seen only by you. Learn more »
launch autoscroll
font size
0
reset
guitar tuner
edit
Autoscroll
slow
fast
+/-
esc
set tempo
stop
Author
Difficulty
Tabbed by: 6METAL6BASSIST6
E-mail: petergriffinav@gmail.com

Tuning: 1/4 step up.

0:23

G|----------------------------------------------------------------|
D|----------------------------------------------------------------|
A|5-----------4-----------2-----------------------------------7---|
E|------------------------------------5-----------0---4---7-------|

0:27

G|----------------------------------------------------------------|
D|7-----------7---7---7-------x---7-------x---7-------7---7-------|
A|----------------------------------------------------------------|
E|----------------------------------------------------------------|

G|----------------------------------------------------------------|
D|--------------------------------------------------------4---6---|
A|5-------5---5-------5---5-------7-------7---7-------7-----------|
E|----------------------------------------------------------------|

G|----------------------------------------------------------------|
D|7-------7---7-------7-------7---7-------7---7-------4-----------|
A|--------------------------------------------------------7---4---|
E|----------------------------------------------------------------|

G|----------------------------------------------------------------|
D|--------------------------------------------------------4---6---|
A|5-------5---5-------4---5-------7-------7---7-------7-----------|
E|----------------------------------------------------------------|

0:41

G|----------------------------------------------------------------|
D|7-------7---7-------7-----------7-------7---7-------4-----------|
A|----------------------------7---------------------------7---4---|
E|----------------------------------------------------------------|

G|----------------------------------------------------------------|
D|----------------------------------------------------------------|
A|5-------5---5-------5---5---4---2-------2---2-------2---2---4---|
E|----------------------------------------------------------------|

G|----------------------------------------------------------------|
D|----------------------------------------------------------------|
A|7-------------------2---4---7---5-----------4-----------2-------|
E|----5---5---5---5-----------------------------------------------|

G|----------------------------------------------------------------|
D|--------------------------------7-----------7---7---7-----------|
A|----------------------------7-------------------------------6---|
E|----5-----------0---4---7---------------------------------------|

G|--------------------------------|
D|--------------------------------|
A|7---7---7-----------6---7-------|
E|--------------------------------|

0:58

G|----------------------------------------------------------------|
D|7-----------7---7---7-----------7-------x---7---7---7---x---x---|
A|----------------------------------------------------------------|
E|----------------------------------------------------------------|

G|----------------------------------------------------------------|
D|--------------------------------------------------------6-------|
A|5-------x---5-------5---5---x---7-------x---7-------7-9-----7---|
E|----------------------------------------------------------------|

G|----------------------------------------------------------------|
D|7-------x---7-------7---x---x---7-------x---7-------7-----------|
A|------------------------------------------------------------4---|
E|----------------------------------------------------------------|

G|----------------------------------------------------------------|
D|--------------------------------------------------------6-------|
A|5-------x---5-------5---5---x---7-------x---7-------7-9-----7---|
E|----------------------------------------------------------------|

1:13

G|----------------------------------------------------------------|
D|7-------x---7-------7-----------7-------x---7-------4-----------|
A|----------------------------7---------------------------7---4---|
E|----------------------------------------------------------------|

G|----------------------------------------------------------------|
D|----------------------------------------------------------------|
A|5-------x---5-------7---5---4---2-----------2-------4-------7---|
E|----------------------------------------------------------------|

G|----------------------------------------------------------------|
D|------------------------4---7-----------------------------------|
A|------------2---4---7-----------5-----------4-----------2-------|
E|5---5---5-------------------------------------------------------|

G|----------------------------------------------------------------|
D|--------------------------------7-------7---7-------7---7-------|
A|----------------------------7-------------------------------6---|
E|----5-----------0---4---7---------------------------------------|

G|----------------------------|
D|----------------------------|
A|7-------7-------------------|
E|----------------------------|

1:30

G|--------------------------------------------------------------------------------------------------------|
D|10----------5-----------4---------------4---7-------7-------7---7---7---------------------------6---9---| x4
A|------------------------------------5-----------------------------------6---7---7---7-------7-----------|
E|--------------------------------------------------------------------------------------------------------|

G|----------------------------------------------------------------------------------------9-9-9-----------|
D|10----------5-----------4---------------4---7-------7-------7---7---7-------------------------------6---|
A|------------------------------------5-----------------------------------6---7---7---7-----------7-------|
E|--------------------------------------------------------------------------------------------------------|

G|--------------------------------------------------------------------------------------------------------|
D|10----------5-----------4---------------4---7-------7-------7---7---7-----------------------------------|
A|------------------------------------5-----------------------------------6---7---7---7---7---7---7---7---|
E|--------------------------------------------------------------------------------------------------------|

G|----------------------------------------------------------------------------------------------------|
D|----------------------------------------------------------------------------------------------------|
A|7---7---7---7---7---7---7---7---7---7---7---7---7---7---7---7---7---7---7---7---7---7---7---7-------|
E|----------------------------------------------------------------------------------------------------|

2:11

G|----------------------------------------------------------------|
D|7-----------7---7---7-------7---7-----------7-7-7---7-----------|
A|------------------------------------------------------------4---|
E|----------------------------------------------------------------|

G|----------------------------------------------------------------|
D|----------------------------------------------------4---6-------|
A|5-----------5---5---5-----------7-----------7---7-----------7---|
E|----------------------------------------------------------------|

G|----------------------------------------------------------------|
D|7-----------7---7---7-----------7-----------7---7---7-----------|
A|------------------------------------------------------------4---|
E|----------------------------------------------------------------|

G|----------------------------------------------------------------|
D|----------------------------------------------------4---6-------|
A|5-----------5---5---5-------5---7-----------7---7-----------7---|
E|----------------------------------------------------------------|

2:26

G|----------------------------------------------------------------|
D|7-----------7---7---7-----------7-----------7-7-7---4-----------|
A|--------------------------------------------------------7---4---|
E|----------------------------------------------------------------|

G|----------------------------------------------------------------|
D|----------------------------------------------------------------|
A|5-----------5-5-5---7---5---4---2---2---2---2---2---4---5---7---|
E|----------------------------------------------------------------|

G|----------------------------------------------------------------|
D|----------------------------------------------------------------|
A|--------------------2---4---7---5-----------4-----------2-------|
E|5---5-------5---5-----------------------------------------------|

G|--------------------------------|
D|--------------------------------|
A|----------------------------7---|
E|----5-----------0---4---7-------|

2:38

G|----------------------------------------------------------------|
D|7-------7---7-------7---7-------7-------7---7-------7---7-------|
A|------------------------------------------------------------4---|
E|----------------------------------------------------------------|

G|----------------------------------------------------------------|
D|----------------------------------------------------------------|
A|5-------5---5-------7---5---4---2---2---2---2---2---4---5---7---|
E|----------------------------------------------------------------|

G|----------------------------------------------------------------|
D|------------------------4---7-----------------------------------|
A|------------2---4---7-----------5-----------4-----------2-------|
E|5---5---5-------------------------------------------------------|

G|----------------------------------------------------------------|
D|--------------------------------7-------7---4-------------------|
A|----------------------------7-----------------------7---4-------|
E|----5-----------0---4---7---------------------------------------|

G|--------------------------------------------------------------------|
D|--------------------------------------------------------------------|
A|5-----------4-----------2-----------------------------------7-------|
E|------------------------------------5-----------0---4---7-------8---|

            
            
Suggest correction
Creating personal tab
Creating personal tab
You can edit any tab online and save it as your Personal.

You can edit, replace or remove any tab part or add personal notes – all changes will be seen only by you.

Personal tabs can be accessed anytime from any device, even offline.
Learn more »
comments
print report bad tab
guest
You may want to rate the tab now too:
select rating
Wanna post a correction for this tab? Suggest correction