Oops, an error
Loading. Please wait.

My Sweet Lord Tab

version 1
version 1

Intro

Whole song

Interactive

48,118 views 174 this week
1 commentread comment
1 2 3 4 5
x 10
add to favorites
launch autoscroll
font size
0
reset
how to read this tab
guitar tuner
Autoscroll
slow
fast
+/-
esc
set tempo
stop
Help us to improve Ultimate-Guitar.com Take our survey!
×
Author
[Intro]

e|----14/16---14---12-----12/14--|--12-------------|
B|-------------------------------|------14------14-|
G|-------------------------------|-----------------|
D|-------------------------------|-----------------|
A|-------------------------------|-----------------|
E|-------------------------------|-----------------|

e|--14/16---14--12---12/14---|-12----------12---------|
B|---------------------------|----14-12/14----14---12-|
G|---------------------------|------------------------|
D|---------------------------|------------------------|
A|---------------------------|------------------------|
E|---------------------------|------------------------|

Continued from above

e|-14/12---14-/-12---16-|
B|----------------------|
G|----------------------|
D|----------------------|
A|----------------------|
E|----------------------|

e|-13-13-/-10--10-/-7--7---10-|-9----9----9--7-------|
B|----------------------------|----------------------|
G|----------------------------|----------------9-/-7-|
D|----------------------------|----------------------|
A|----------------------------|----------------------|
E|----------------------------|----------------------|

************************************

| /  Slide up

************************************
Suggest correction
comments
print report bad tab
1 comment total.
0 reply
utopian 163 Feb 22, 2004 12:00 AM

There's more to the end part than just the e string. Consider this

16-\-13-\-10-\-7-\-10-\-13-\-16---9--9------
---------------------------------10-10-9-7--
16-\-13-\-10-\-7-\-10-\-13-\-16--------9-8--
--------------------------------------------
--------------------------------------------
--------------------------------------------

guest
You may want to rate the tab now too:
select rating
Wanna post a correction for this tab? Suggest correction