Oops, an error
Loading. Please wait.

My Sweet Lord Tab

version 1
version 1

Intro

Whole song

Interactive

45,082 views 177 this week
1 commentread comment
1 2 3 4 5
accurate
x 10
add to favorites
launch autoscroll
font size
0
reset
how to read this tab
guitar tuner
Autoscroll
slow
fast
+/-
esc
set tempo
stop
Help us to improve Ultimate-Guitar.com Take our survey!
×
Author
email me with any mistakes or post them my e-mail is brian_dino@hotmail.com

/:slide
        
6----14/16---14---12-----12/14--[--12------------
5-------------------------------[------14------14
4-------------------------------[----------------
3-------------------------------[----------------
2-------------------------------[----------------
1-------------------------------[----------------


6--14/16---14--12---12/14---[-12----------12---------
5---------------------------[----14-12/14----14---12-
4---------------------------[------------------------
3---------------------------[------------------------
2---------------------------[------------------------
1---------------------------[------------------------
Continued from above
6-14/12---14-/-12---16-
5----------------------
4----------------------
3----------------------
2----------------------
1----------------------


6-13-13-/-10--10-/-7--7---10-[-9----9----9--7-------
5----------------------------[----------------------
4----------------------------[----------------9-/-7-
3----------------------------[----------------------
2----------------------------[----------------------
1----------------------------[----------------------
Suggest correction
comments
print report bad tab
1 comment total.
0 reply
utopian 163 wrote on February 22 2004, 12:00 am

There's more to the end part than just the e string. Consider this

16-\-13-\-10-\-7-\-10-\-13-\-16---9--9------
---------------------------------10-10-9-7--
16-\-13-\-10-\-7-\-10-\-13-\-16--------9-8--
--------------------------------------------
--------------------------------------------
--------------------------------------------

guest
You may want to rate the tab now too:
select rating
Wanna post a correction for this tab? Suggest correction