Oops, an error
Loading. Please wait.

My Sweet Lord Tab

version 2
version 2

Whole song

Interactive

Video

99,447 views 831 this week
9 commentsread comments
1 2 3 4 5
x 20
add to favorites
launch autoscroll
font size
0
reset
how to read this tab
guitar tuner
×
Best way to learn
"My Sweet Lord"
Autoscroll
slow
fast
+/-
esc
set tempo
stop
My Sweet Lord =====> George Harrison
From the album ====> All Things Must Pass (Apple, 1971)
Any comments or Questions ====> pedi_kalak65@yahoo.com
plz tell me if it needs any corrections..thx..have fun


[Intro]

(F#m B)x4

Gtr1
  E              C#m           E              C#m                          E
e|--------------------------------------------------------------------------|
B|-19/21-19\17-17/19-17---------19/21-19\17-17/19-17--------------17--------|
G|----------------------18-18--------------------------18--16/18------18/16-|
D|--------------------------------------------------------------------------|
A|--------------------------------------------------------------------------|
E|--------------------------------------------------------------------------|

Gtr1 & Gtr2 together

                 G#dim         C#7           F#m                  B
e|-------------------------------------------14-----------------------------|
B|-19/21--19\17--21\18--18\15--15\12--12/15------14--14--14\12--------------|
G|--------------------------------------------------------------13\11-------|
D|--------------------------------------------------------------------------|
A|--------------------------------------------------------------------------|
E|--------------------------------------------------------------------------|

e|-------------------------------------------10-----------------------------|
B|-19/21--19\17--18\15--15\12--12\9---6/9--------10--10--10\9---------------|
G|--------------------------------------------------------------9\8---------|
D|--------------------------------------------------------------------------|
A|--------------------------------------------------------------------------|
E|--------------------------------------------------------------------------|

B               F#m
 My sweet lord
B               F#m
 Hm, my lord
B               F#m
 Hm, my lord
B                 E       C#m                E           C#m
 I really want to see you     Really want to be with you
C#m             E                    G#dim    C#7      F#m
 Really want to see you lord  But it takes so long, my lord
B               F#m
 My sweet lord
B               F#m
 Hm, my lord
B               F#m
 Hm, my lord
B                 E        C#m                 E           C#m
 I really want to know you      Really want to go with you
C#m             E                       G#dim      C#7      F#m        B
 Really want to show you lord   That it won't take long, my lord (hallelujah)
         F#m        B
My sweet lord (hallelujah)
       F#m        B
Hm, my lord (hallelujah)
         F#m        B
My sweet lord (hallelujah)
                 E                          E7
I really want to see you     Really want to see you
               C#7                          F#
Really want to see you lord  Really want to see you lord
       A#dim    Eb7      G#m        C#
But it takes so long, my lord (hallelujah)
         G#m        C#
My sweet lord (hallelujah)
       G#m        C#
Hm, my lord (hallelujah)
           G#m        C#
My, my, my lord (hallelujah)
                 F#             Ebm
I really want to know you (hallelujah)
              F#                 Ebm
Really want to go with you (hallelujah)
               F#
Really want to show you lord (aaah)
        A#dim      Eb7      G#m        C#
That it won't take long, my lord (hallelujah)
   G#m    C#
Hmm (hallelujah)
         G#m        C#
My sweet lord (hallelujah)
        G#m        C#
My, my, lord (hallelujah)



Gtr1
  F#             Ebm               F#               Ebm                   F#
e|-16/18-16\14-14/16-14---------------16/18-16\14-14/16-14----------14------|
B|----------------------16-16\14---------------------------16-14/16----16\14|
G|-------------------------------15\13--------------------------------------|
D|--------------------------------------------------------------------------|
A|--------------------------------------------------------------------------|
E|--------------------------------------------------------------------------|

Gtr1 & Gtr2 together
                  A#dim         Eb7             G#m                C#
e|--18-----16\14--18\15--15\12--12\9--9/12--16------------------------------|
B|----------------------------------------------16--/16--/16\14-------------|
G|---------------------------------------------------------------15\13------|
D|--------------------------------------------------------------------------|
A|--------------------------------------------------------------------------|
E|--------------------------------------------------------------------------|

e|-/18-----16\14--15\12--12\9---9\6---6/9---12------------------------------|
B|----------------------------------------------12--/12--/12\11-------------|
G|---------------------------------------------------------------11\10------|
D|--------------------------------------------------------------------------|
A|--------------------------------------------------------------------------|
E|--------------------------------------------------------------------------|

       G#m        C#
Hm, my lord (hare krishna)
           G#m        C#
My, my, my lord (hare krishna)
          G#m                  C#
Oh hm, my sweet lord (krishna, krishna)
       G#m      C#
Oh-uuh-uh (hare hare)
                      F#            Ebm
Now, I really want to see you (hare rama)
               F#                Ebm
Really want to be with you (hare rama)
               F#
Really want to see you lord (aaah)
       A#dim    Eb7      G#m        C#
But it takes so long, my lord (hallelujah)
       G#m        C#
Hm, my lord (hallelujah)
           G#m        C#
My, my, my lord (hare krishna)
         G#m        C#
My sweet lord (hare krishna)
         G#m           C#
My sweet lord (krishna krishna)
     G#m      C#
My lord (hare hare)
    G#m       C#
Hm, hm (Gurur Brahma)
    G#m       C#
Hm, hm (Gurur Vishnu)
    G#m       C#
Hm, hm (Gurur Devo)
    G#m       C#
Hm, hm (Maheshwara)
         G#m         C#
My sweet lord (Gurur Sakshaat)
         G#m       C#
My sweet lord (Parabrahma)
           G#m           C#
My, my, my lord (Tasmayi Shree)
               G#m          C#
My, my, my, my lord (Guruve Namah)
         G#m        C#
My sweet lord (Hare Rama)
         G#m        C#
              (hare krishna)
         G#m        C#
My sweet lord (hare krishna)
         G#m           C#
My sweet lord (krishna krishna)



   G#m        C#
My lord (hare hare)
==========================================

Chords
F#m        244222
B          224442
E          022100
C#m        x46654(or x42120)
C#7        x46464(or x4342x)
G#dim      456464(other names:Bdim Fdim Ddim)
F#         244322
Ebm        x68876(or xx1342)
G#m        466444
C#         446664
A#dim      678686(other names:C#dim Gdim Edim)
Eb7        x68686(or x6564 or xx1323)

==========================================
Suggest correction
comments
print report bad tab
9 comments total. Showing first comments.
0 reply
Dahmir 10 Sep 11, 2005 08:00 PM

I like it.

0 reply
guitarreaper95 10 Aug 26, 2007 02:26 PM

Bro, im not trying to be mean, but if u havent noticed there's a capo on the second fret for rythme guitar. and plus: the intro isnt syncd with both guitars. Guitar one does the lead,and George Harrison does his chords. so just change your intro a tad and add a note about the capo. thanks for listening

0 reply
Zoso518 154 Sep 05, 2007 09:37 AM

really good, but i dont think every guitar can go up to the 21st fret.

guest
You may want to rate the tab now too:
select rating
Wanna post a correction for this tab? Suggest correction