Oops, an error
Loading. Please wait.
We have Chord Pro version of My Sweet Lord.
It's the closest thing you can get to the original song and it has interactive parts. Check out the tab »
×
9,685 views 9 this week
no commentswrite comment
1 2 3 4 5
1 last vote to show rating
add to favorites
×
Save as Personal and add changes to this tab that will be seen only by you. Learn more ›
×
You can save this tab as Personal to edit and correct it or add notes. All changes will be seen only by you. Learn more »
launch autoscroll
font size
0
reset
how to read this tab
guitar tuner
edit
Autoscroll
slow
fast
+/-
esc
set tempo
stop
Author
  -----------------------------------------------------------------

   GEORGE HARRISON - MY SWEET LORD (G Harrison) From ALL THINGS
                     MUST PASS album. Released on 1970.

  -----------------------------------------------------------------





   My sweet lord
   Hm, my lord
   Hm, my lord

   I really want to see you
   Really want to be with you
   Really want to see you lord
   But it takes so long, my lord

   My sweet lord
   Hm, my lord
   Hm, my lord

   I really want to know you
   Really want to go with you
   Really want to show you lord
   That it won't take long, my lord (hallelujah)

   My sweet lord (hallelujah)
   Hm, my lord (hallelujah)
   My sweet lord (hallelujah)

   I really want to see you
   Really want to see you
   Really want to see you, lord
   Really want to see you, lord
   But it takes so long, my lord (hallelujah)

   My sweet lord (hallelujah)
   Hm, my lord (hallelujah)
   My, my, my lord (hallelujah)

   I really want to know you (hallelujah)
   Really want to go with you (hallelujah)
   Really want to show you lord (aaah)
   That it won't take long, my lord (hallelujah)

   Hmm (hallelujah)
   My sweet lord (hallelujah)
   My, my, lord (hallelujah)

     GUITAR SOLO

   Hm, my lord (hare krishna)
   My, my, my lord (hare krishna)
   Oh hm, my sweet lord (krishna, krishna)
   Oh-uuh-uh (hare hare)

   Now, I really want to see you (hare rama)
   Really want to be with you (hare rama)
   Really want to see you lord (aaah)
   But it takes so long, my lord (hallelujah)

   Hm, my lord (hallelujah)
   My, my, my lord (hare krishna)
   My sweet lord (hare krishna)
   My sweet lord (krishna krishna)
   My lord (hare hare)
   Hm, hm (Gurur Brahma)
   Hm, hm (Gurur Vishnu)
   Hm, hm (Gurur Devo)
   Hm, hm (Maheshwara)
   My sweet lord (Gurur Sakshaat)
   My sweet lord (Parabrahma)
   My, my, my lord (Tasmayi Shree)
   My, my, my, my lord (Guruve Namah)
   My sweet lord (Hare Rama)

   (hare krishna)
   My sweet lord (hare krishna)
   My sweet lord (krishna krishna)
   My lord (hare hare)




      Use a capo on the 2nd fret just for the rhythm guitar


     INTRO

     F#m                         B
  e|-0-------0-------0---0---0---0---|-0---0---0-------0---0---0---0---|
  B|-0-------0-------0---0---0---2---|-2---2---2-------2---2---2---2---|
  G|-0-------0-------0---0---0---2---|-2---2---2-------2---2---2---2---|
  D|-2-------2-------2---2---2---2---|-2---2---2-------2---2---2---2---|
  A|-2-------2-------2---2---2---0---|-0---0---0-------0---0---0---0---|
  E|-0-------0-------0---0---0-------|---------------------------------|




     F#m                         B
  e|-0-------0-------0---0---0---0---|-----0---0-------0---0---0---0---|
  B|-0-------0-------0---0---0---2---|-----2---2-------2---2---2---2---|
  G|-0-------0-------0---0---0---2---|-----2---2-------2---2---2---2---|
  D|-2-------2-------2---2---2---2---|-----2---2-------2---2---2---2---|
  A|-2-------2-------2---2---2---0---|-----0---0-------0---0---0---0---|
  E|-0-------0-------0---0---0-------|---------------------------------|




     F#m                         B
  e|-0-------0-------0---0---0---0---|-----0---0-------0---0---0-------|
  B|-0-------0-------0---0---0---2---|-----2---2-------2---2---2-------|
  G|-0-------0-------0---0---0---2---|-----2---2-------2---2---2-------|
  D|-2-------2-------2---2---2---2---|-----2---2-------2---2---2-------|
  A|-2-------2-------2---2---2---0---|-----0---0-------0---0---0-------|
  E|-0-------0-------0---0---0-------|---------------------------------|




     F#m                         B
  e|-0-------0-------0---0---0---0---|-----0---0-------0---0---0---0---|
  B|-0-------0-------0---0---0---2---|-----2---2-------2---2---2---2---|
  G|-0-------0-------0---0---0---2---|-----2---2-------2---2---2---2---|
  D|-2-------2-------2---2---2---2---|-----2---2-------2---2---2---2---|
  A|-2-------2-------2---2---2---0---|-----0---0-------0---0---0---0---|
  E|-0-------0-------0---0---0-------|---------------------------------|




     E                                 C#m
  e|-2-------2-------2---2---2-------|-2-------2---2---2---2---2-------|
  B|-3-------3-------3---3---3-------|-3-------3---3---3---3---3-------|
  G|-2-------2-------2---2---2-------|-4-------4---4---4---4---4-------|
  D|-0-------0-------0---0---0-------|-4-------4---4---4---4---4-------|
  A|---------------------------------|-2-------2---2---2---2---2-------|
  E|---------------------------------|---------------------------------|

  e|---------14/16---14\12------12/14|-----12--------------------------|
  B|---------------------------------|---------14------14--------------|
  G|---------------------------------|---------------------------------|
  D|---------------------------------|---------------------------------|
  A|---------------------------------|---------------------------------|
  E|---------------------------------|---------------------------------|




     E                                 C#m
  e|-2-------2-------2---2---2---2---|-2-------2---2---2---2---2---2---|
  B|-3-------3-------3---3---3---3---|-3-------3---3---3---3---3---3---|
  G|-2-------2-------2---2---2---2---|-4-------4---4---4---4---4---4---|
  D|-0-------0-------0---0---0---0---|-4-------4---4---4---4---4---4---|
  A|---------------------------------|-2-------2---2---2---2---2---2---|
  E|---------------------------------|---------------------------------|

  e|---------14/16---14\12------12/14|-----12---------------12---------|
  B|---------------------------------|---------14------12/14---14\12---|
  G|---------------------------------|---------------------------------|
  D|---------------------------------|---------------------------------|
  A|---------------------------------|---------------------------------|
  E|---------------------------------|---------------------------------|




     E                                 G#dim           C#7
  e|-2-------2-------2---2---2-------|-2---2---2-------2---2---2-------|
  B|-3-------3-------3---3---3-------|-1---1---1-------0---0---0-------|
  G|-2-------2-------2---2---2-------|-2---2---2-------2---2---2-------|
  D|-0-------0-------0---0---0-------|-1---1---1-------1---1---1-------|
  A|---------------------------------|-----------------2---2---2-------|
  E|---------------------------------|---------------------------------|

  e|---------14/16---14\12-------16-\|-13--------------------------14--|
  B|-----------------------------18-\|-15---18\15---15\12---12/15--15--|
  G|---------------------------------|------19\16---16\13---13/16------|
  D|---------------------------------|---------------------------------|
  A|---------------------------------|---------------------------------|
  E|---------------------------------|---------------------------------|




     F#m                         B
  e|-0-------0-------0---0---0---0---|-----0---0-------0---0---0-------|
  B|-0-------0-------0---0---0---2---|-----2---2-------2---2---2-------|
  G|-0-------0-------0---0---0---2---|-----2---2-------2---2---2-------|
  D|-2-------2-------2---2---2---2---|-----2---2-------2---2---2-------|
  A|-2-------2-------2---2---2---0---|-----0---0-------0---0---0-------|
  E|-0-------0-------0---0---0-------|---------------------------------|
                                                   My      sweet   lord
  e|---------------------------------|---------------------------------|
  B|-14------14------14\12-----------|---------------------------------|
  G|-14------14------14\13---13\11---|---------------------------------|
  D|-------------------------14\13---|---------------------------------|
  A|---------------------------------|---------------------------------|
  E|---------------------------------|---------------------------------|





     CHORUS

     F#m                         B
  e|-0-------0-------0---0---0---0---|-----0---0-------0---0---0-------|
  B|-0-------0-------0---0---0---2---|-----2---2-------2---2---2-------|
  G|-0-------0-------0---0---0---2---|-----2---2-------2---2---2-------|
  D|-2-------2-------2---2---2---2---|-----2---2-------2---2---2-------|
  A|-2-------2-------2---2---2---0---|-----0---0-------0---0---0-------|
  E|-0-------0-------0---0---0-------|---------------------------------|
                                               Hmmmmm      my      lord



     F#m                         B
  e|-0-------0-------0---0---0---0---|-----0---0-------0---0---0-------|
  B|-0-------0-------0---0---0---2---|-----2---2-------2---2---2-------|
  G|-0-------0-------0---0---0---2---|-----2---2-------2---2---2-------|
  D|-2-------2-------2---2---2---2---|-----2---2-------2---2---2-------|
  A|-2-------2-------2---2---2---0---|-----0---0-------0---0---0-------|
  E|-0-------0-------0---0---0-------|---------------------------------|
                                               Hmmmmm          my  lord



     F#m                         B
  e|-0-------0-------0---0---0---0---|-----0---0-------0---0---0-------|
  B|-0-------0-------0---0---0---2---|-----2---2-------2---2---2-------|
  G|-0-------0-------0---0---0---2---|-----2---2-------2---2---2-------|
  D|-2-------2-------2---2---2---2---|-----2---2-------2---2---2-------|
  A|-2-------2-------2---2---2---0---|-----0---0-------0---0---0-------|
  E|-0-------0-------0---0---0-------|---------------------------------|
                                                   I   really  want to




    VERSE

     E                                 C#m
  e|-2-------2-------2---2---2-------|-2-------2---2-------2---2---2---|
  B|-3-------3-------3---3---3-------|-3-------3---3-------3---3---3---|
  G|-2-------2-------2---2---2-------|-4-------4---4-------4---4---4---|
  D|-0-------0-------0---0---0-------|-4-------4---4-------4---4---4---|
  A|---------------------------------|-2-------2---2-------2---2---2---|
  E|---------------------------------|---------------------------------|
     see     you                                       Really  want to



     E                                 C#m
  e|-2-------2-------2---2---2---2---|-----2---2-------2---2---2---2---|
  B|-3-------3-------3---3---3---3---|-----3---3-------3---3---3---3---|
  G|-2-------2-------2---2---2---4---|-----4---4-------4---4---4---4---|
  D|-0-------0-------0---0---0---4---|-----4---4-------4---4---4---4---|
  A|-----------------------------2---|-----2---2-------2---2---2---2---|
  E|---------------------------------|---------------------------------|
     be      with you                                  Really  want to



     E                                 G#dim           C#7
  e|-2-------2---2---2---2---2-------|-2---2---2-------2---2---2-------|
  B|-3-------3---3---3---3---3-------|-1---1---1-------0---0---0-------|
  G|-2-------2---2---2---2---2-------|-2---2---2-------2---2---2-------|
  D|-0-------0---0---0---0---0-------|-1---1---1-------1---1---1-------|
  A|---------------------------------|-----------------2---2---2-------|
  E|---------------------------------|---------------------------------|
     see     you lord    but it  takes     so      long    my      lord




     CHORUS

     F#m                         B
  e|-0-------0-------0---0---0---0---|-0---0---0-------0---0---0-------|
  B|-0-------0-------0---0---0---2---|-2---2---2-------2---2---2-------|
  G|-0-------0-------0---0---0---2---|-2---2---2-------2---2---2-------|
  D|-2-------2-------2---2---2---2---|-2---2---2-------2---2---2-------|
  A|-2-------2-------2---2---2---0---|-0---0---0-------0---0---0-------|
  E|-0-------0-------0---0---0-------|---------------------------------|
                                           My              sweet   lord



     F#m                         B
  e|-0-------0-------0---0---0---0---|-----0---0-------0---0---0---0---|
  B|-0-------0-------0---0---0---2---|-----2---2-------2---2---2---0---|
  G|-0-------0-------0---0---0---2---|-----2---2-------2---2---2---0---|
  D|-2-------2-------2---2---2---2---|-----2---2-------2---2---2-------|
  A|-2-------2-------2---2---2---0---|-----0---0-------0---0---0-------|
  E|-0-------0-------0---0---0-------|---------------------------------|
                                                   Hmmmm   my      lord



     F#m                         B
  e|-0-------0-------0---0---0---0---|-----0---0-------0---0---0-------|
  B|-0-------0-------0---0---0---2---|-----2---2-------2---2---2-------|
  G|-0-------0-------0---0---0---2---|-----2---2-------2---2---2-------|
  D|-2-------2-------2---2---2---2---|-----2---2-------2---2---2-------|
  A|-2-------2-------2---2---2---0---|-----0---0-------0---0---0-------|
  E|-0-------0-------0---0---0-------|---------------------------------|
                                                   Hmmmm   my      lord



     F#m                         B
  e|-0-------0-------0---0---0---0---|-----0---0-------0---0---0-------|
  B|-0-------0-------0---0---0---2---|-----2---2-------2---2---2-------|
  G|-0-------0-------0---0---0---2---|-----2---2-------2---2---2-------|
  D|-2-------2-------2---2---2---2---|-----2---2-------2---2---2-------|
  A|-2-------2-------2---2---2---0---|-----0---0-------0---0---0-------|
  E|-0-------0-------0---0---0-------|---------------------------------|
                                                   I   really  want to




     VERSE

     E                                 C#m
  e|-2-------2-------2---2---2-------|-----2---2-------2---2---2-------|
  B|-3-------3-------3---3---3-------|-----3---3-------3---3---3-------|
  G|-2-------2-------2---2---2-------|-----4---4-------4---4---4-------|
  D|-0-------0-------0---0---0-------|-----4---4-------4---4---4-------|
  A|---------------------------------|-----2---2-------2---2---2-------|
  E|---------------------------------|---------------------------------|
     know    you                                       Really  want to



     E                                 C#m
  e|-2-------2-------2---2---2---2---|-----2---2-------2---2---2---2---|
  B|-3-------3-------3---3---3---3---|-----3---3-------3---3---3---3---|
  G|-2-------2-------2---2---2---4---|-----4---4-------4---4---4---4---|
  D|-0-------0-------0---0---0---4---|-----4---4-------4---4---4---4---|
  A|-----------------------------2---|-----2---2-------2---2---2---2---|
  E|---------------------------------|---------------------------------|
     go      with you                                  Really  want to



     E                                 G#dim           C#7
  e|-2-------2---2-------2---2-------|-2---2---2-----------2---2-------|
  B|-3-------3---3-------3---3-------|-1---1---1-----------0---0-------|
  G|-2-------2---2-------2---2-------|-2---2---2-----------2---2-------|
  D|-0-------0---0-------0---0-------|-1---1---1-----------1---1-------|
  A|---------------------------------|---------------------2---2-------|
  E|---------------------------------|---------------------------------|
     show    you lord    that it won't     take    long        my  lord




     CHORUS

     F#m                         B
  e|-0-------0-------0---0---0---0---|-----0---0-------0---0---0---0---|
  B|-0-------0-------0---0---0---2---|-----2---2-------2---2---2---0---|
  G|-0-------0-------0---0---0---2---|-----2---2-------2---2---2---0---|
  D|-2-------2-------2---2---2---2---|-----2---2-------2---2---2-------|
  A|-2-------2-------2---2---2---0---|-----0---0-------0---0---0-------|
  E|-0-------0-------0---0---0-------|---------------------------------|
                                               My          sweet   lord



     F#m                         B
  e|-0-------0-------0---0---0---0---|-----0---0-------0---0---0-------|
  B|-0-------0-------0---0---0---2---|-----2---2-------2---2---2-------|
  G|-0-------0-------0---0---0---2---|-----2---2-------2---2---2-------|
  D|-2-------2-------2---2---2---2---|-----2---2-------2---2---2-------|
  A|-2-------2-------2---2---2---0---|-----0---0-------0---0---0-------|
  E|-0-------0-------0---0---0-------|---------------------------------|
                                           Hmm     my          lord



     F#m                         B
  e|-0-------0-------0---0---0---0---|-----0---0---0---0---0---0---0---|
  B|-0-------0-------0---0---0---2---|-----2---2---2---2---2---2---0---|
  G|-0-------0-------0---0---0---2---|-----2---2---2---2---2---2---0---|
  D|-2-------2-------2---2---2---2---|-----2---2---2---2---2---2-------|
  A|-2-------2-------2---2---2---0---|-----0---0---0---0---0---0-------|
  E|-0-------0-------0---0---0-------|---------------------------------|
                                               My          sweet   lord



     F#m                         B
  e|-0-------0-------0---0---0---0---|-0---0---0-------0---0---0-------|
  B|-0-------0-------0---0---0---2---|-2---2---2-------2---2---2-------|
  G|-0-------0-------0---0---0---2---|-2---2---2-------2---2---2-------|
  D|-2-------2-------2---2---2---2---|-2---2---2-------2---2---2-------|
  A|-2-------2-------2---2---2---0---|-0---0---0-------0---0---0-------|
  E|-0-------0-------0---0---0-------|---------------------------------|
                                                       Really  want to




     VERSE

     E
  e|-2-------2-------2---2---2---2---|-----2---2-------2---2---2-------|
  B|-3-------3-------3---3---3---3---|-----3---3-------3---3---3-------|
  G|-2-------2-------2---2---2---2---|-----2---2-------2---2---2-------|
  D|-0-------0-------0---0---0---0---|-----0---0-------0---0---0-------|
  A|---------------------------------|---------------------------------|
  E|---------------------------------|---------------------------------|
     see     you                                       Really  want to



     E7
  e|-2-------2-------2---2---2---2---|---------2---2-------2---2---2---|
  B|-1-------1-------1---1---1---1---|---------1---1-------1---1---1---|
  G|-2-------2-------2---2---2---2---|---------2---2-------2---2---2---|
  D|-0-------0-------0---0---0---0---|---------0---0-------0---0---0---|
  A|---------------------------------|---------------------------------|
  E|---------------------------------|---------------------------------|
     see     you                                       Really  want to



     C#7
  e|-2-------2-------2---2---2---2---|---------2---2-------2---2---2---|
  B|-0-------0-------0---0---0---0---|---------0---0-------0---0---0---|
  G|-2-------2-------2---2---2---2---|---------2---2-------2---2---2---|
  D|-1-------1-------1---1---1---1---|---------1---1-------1---1---1---|
  A|-2-------2-------2---2---2---2---|---------2---2-------2---2---2---|
  E|---------------------------------|---------------------------------|
     see     you lord                                  Really  want to



     F#                                A#dim           D#7
  e|-0-----------0---0---0-----------|-4---4---4-------4---4---4-------|
  B|-0-----------0---0---0-----------|-3---3---3-------2---2---2-------|
  G|-1-----------1---1---1-----------|-4---4---4-------4---4---4-------|
  D|-2-----------2---2---2-----------|-3---3---3-------3---3---3-------|
  A|-2-----------2---2---2-----------|---------------------------------|
  E|-0-----------0---0---0-----------|---------------------------------|
     see     you lord    but it  takes     so      long    my




     CHORUS

     G#m                               C#
  e|-2-------2-------2---2---2-------|-2---2---2-------2---2---2-------|
  B|-2-------2-------2---2---2-------|-4---4---4-------4---4---4-------|
  G|-2-------2-------2---2---2-------|-4---4---4-------4---4---4-------|
  D|-4-------4-------4---4---4-------|-4---4---4-------4---4---4-------|
  A|-4-------4-------4---4---4-------|-2---2---2-------2---2---2-------|
  E|-2-------2-------2---2---2-------|---------------------------------|
         lord                                  My          sweet   lord



     G#m                               C#
  e|-2-------2-------2---2---2-------|-2---2---2-------2---2---2-------|
  B|-2-------2-------2---2---2-------|-4---4---4-------4---4---4-------|
  G|-2-------2-------2---2---2-------|-4---4---4-------4---4---4-------|
  D|-4-------4-------4---4---4-------|-4---4---4-------4---4---4-------|
  A|-4-------4-------4---4---4-------|-2---2---2-------2---2---2-------|
  E|-2-------2-------2---2---2-------|---------------------------------|
                                               Hmmmmm      my      lord



     G#m                               C#
  e|-2-------2-------2---2---2-------|-2---2---2-------2---2---2-------|
  B|-2-------2-------2---2---2-------|-4---4---4-------4---4---4-------|
  G|-2-------2-------2---2---2-------|-4---4---4-------4---4---4-------|
  D|-4-------4-------4---4---4-------|-4---4---4-------4---4---4-------|
  A|-4-------4-------4---4---4-------|-2---2---2-------2---2---2-------|
  E|-2-------2-------2---2---2-------|---------------------------------|
                                           My,     my,     my      lord



     G#m                               C#
  e|-2-------2-------2---2---2-------|-2---2---2-------2---2---2-------|
  B|-2-------2-------2---2---2-------|-4---4---4-------4---4---4-------|
  G|-2-------2-------2---2---2-------|-4---4---4-------4---4---4-------|
  D|-4-------4-------4---4---4-------|-4---4---4-------4---4---4-------|
  A|-4-------4-------4---4---4-------|-2---2---2-------2---2---2-------|
  E|-2-------2-------2---2---2-------|---------------------------------|
                                                   I   really  want to




     VERSE

     F#                                D#m
  e|-0-------0-------0---0---0-------|-----4---4-------4---4---4-------|
  B|-0-------0-------0---0---0-------|-----5---5-------5---5---5-------|
  G|-1-------1-------1---1---1-------|-----6---6-------6---6---6-------|
  D|-2-------2-------2---2---2-------|-----6---6-------6---6---6-------|
  A|-2-------2-------2---2---2-------|-----4---4-------4---4---4-------|
  E|-0-------0-------0---0---0-------|---------------------------------|
     know    you                                       Really  want to



     F#                                D#m
  e|-0-------0-------0---0---0-------|-4---4---4-------4---4-----------|
  B|-0-------0-------0---0---0-------|-5---5---5-------5---5-----------|
  G|-1-------1-------1---1---1-------|-6---6---6-------6---6-----------|
  D|-2-------2-------2---2---2-------|-6---6---6-------6---6-----------|
  A|-2-------2-------2---2---2-------|-4---4---4-------4---4-----------|
  E|-0-------0-------0---0---0-------|---------------------------------|
     go      with you                                  Really  want to



     F#                                A#dim           D#7
  e|-0-----------0---0---0---0-------|-4---4---4-------4---4---4-------|
  B|-0-----------0---0---0---0-------|-3---3---3-------2---2---2-------|
  G|-1-----------1---1---1---1-------|-4---4---4-------4---4---4-------|
  D|-2-----------2---2---2---2-------|-3---3---3-------3---3---3-------|
  A|-2-----------2---2---2---2-------|---------------------------------|
  E|-0-----------0---0---0---0-------|---------------------------------|
     show    you lord        that it   won't   take    long




     CHORUS

     G#m                               C#
  e|-2-------2-------2---2---2-------|-2---2---2-------2---2---2-------|
  B|-2-------2-------2---2---2-------|-4---4---4-------4---4---4-------|
  G|-2-------2-------2---2---2-------|-4---4---4-------4---4---4-------|
  D|-4-------4-------4---4---4-------|-4---4---4-------4---4---4-------|
  A|-4-------4-------4---4---4-------|-2---2---2-------2---2---2-------|
  E|-2-------2-------2---2---2-------|---------------------------------|
     my          lord                          Hmmmmmmmmmmmmmmmm



     G#m                               C#
  e|-2-------2-------2---2---2-------|-2---2-----------2---2---2-------|
  B|-2-------2-------2---2---2-------|-4---4-----------4---4---4-------|
  G|-2-------2-------2---2---2-------|-4---4-----------4---4---4-------|
  D|-4-------4-------4---4---4-------|-4---4-----------4---4---4-------|
  A|-4-------4-------4---4---4-------|-2---2-----------2---2---2-------|
  E|-2-------2-------2---2---2-------|---------------------------------|
                                               My          sweet   lord



     G#m                               C#
  e|-2-------2-------2---2---2-------|-2---2---2-------2---2---2-------|
  B|-2-------2-------2---2---2-------|-4---4---4-------4---4---4-------|
  G|-2-------2-------2---2---2-------|-4---4---4-------4---4---4-------|
  D|-4-------4-------4---4---4-------|-4---4---4-------4---4---4-------|
  A|-4-------4-------4---4---4-------|-2---2---2-------2---2---2-------|
  E|-2-------2-------2---2---2-------|---------------------------------|
                                               My,     my          lord



     G#m                               C#
  e|-2-------2-------2---2---2-------|-2---2---2-------2---2---2-------|
  B|-2-------2-------2---2---2-------|-4---4---4-------4---4---4-------|
  G|-2-------2-------2---2---2-------|-4---4---4-------4---4---4-------|
  D|-4-------4-------4---4---4-------|-4---4---4-------4---4---4-------|
  A|-4-------4-------4---4---4-------|-2---2---2-------2---2---2-------|
  E|-2-------2-------2---2---2-------|---------------------------------|





     GUITAR SOLO

     F#                                D#m
  e|-0-------0-------0---0-------4---|-----4---4-------4---4---4-------|
  B|-0-------0-------0---0-------5---|-----5---5-------5---5---5-------|
  G|-1-------1-------1---1-------6---|-----6---6-------6---6---6-------|
  D|-2-------2-------2---2-------6---|-----6---6-------6---6---6-------|
  A|-2-------2-------2---2-------4---|-----4---4-------4---4---4-------|
  E|-0-------0-------0---0-----------|---------------------------------|

  e|---------16/18---16\14------14/16|-----14--------------------------|
  B|---------------------------------|---------16------16\14-----------|
  G|---------------------------------|-------------------------15\13---|
  D|---------------------------------|---------------------------------|
  A|---------------------------------|---------------------------------|
  E|---------------------------------|---------------------------------|




     F#                                D#m
  e|-0-------0-------0---0---0-------|-4---4---4-------4---4-----------|
  B|-0-------0-------0---0---0-------|-5---5---5-------5---5-----------|
  G|-1-------1-------1---1---1-------|-6---6---6-------6---6-----------|
  D|-2-------2-------2---2---2-------|-6---6---6-------6---6-----------|
  A|-2-------2-------2---2---2-------|-4---4---4-------4---4-----------|
  E|-0-------0-------0---0---0-------|---------------------------------|

  e|---------16/18---16\14------14/16|-----14---------------14---------|
  B|---------------------------------|---------16------14/16---16\14---|
  G|---------------------------------|---------------------------------|
  D|---------------------------------|---------------------------------|
  A|---------------------------------|---------------------------------|
  E|---------------------------------|---------------------------------|




     F#                                A#dim           D#7
  e|-0-----------0---0---0---0-------|-4---4---4-------4---4---4-------|
  B|-0-----------0---0---0---0-------|-3---3---3-------2---2---2-------|
  G|-1-----------1---1---1---1-------|-4---4---4-------4---4---4-------|
  D|-2-----------2---2---2---2-------|-3---3---3-------3---3---3-------|
  A|-2-----------2---2---2---2-------|---------------------------------|
  E|-0-----------0---0---0---0-------|---------------------------------|

  e|---------16/18---16\14-------18-\|-15--------------------------16--|
  B|-----------------------------20-\|-17---20\17---17\14---14/17--17--|
  G|---------------------------------|------21\18---18\15---15/18------|
  D|---------------------------------|---------------------------------|
  A|---------------------------------|---------------------------------|
  E|---------------------------------|---------------------------------|




     G#m                               C#
  e|-2-------2-------2---2---2-------|-2---2---2-------2---2---2-------|
  B|-2-------2-------2---2---2-------|-4---4---4-------4---4---4-------|
  G|-2-------2-------2---2---2-------|-4---4---4-------4---4---4-------|
  D|-4-------4-------4---4---4-------|-4---4---4-------4---4---4-------|
  A|-4-------4-------4---4---4-------|-2---2---2-------2---2---2-------|
  E|-2-------2-------2---2---2-------|---------------------------------|
                             Hmmmmmmmmm            my              lord
  e|---------------------------------|---------------------------------|
  B|-16------16------16\14-----------|---------------------------------|
  G|-16------16------16\15---15\13---|---------------------------------|
  D|-------------------------16\15---|---------------------------------|
  A|---------------------------------|---------------------------------|
  E|---------------------------------|---------------------------------|





     CHORUS

     G#m                               C#
  e|-2-------2-------2---2---2-------|-2---2---2-------2---2---2-------|
  B|-2-------2-------2---2---2-------|-4---4---4-------4---4---4-------|
  G|-2-------2-------2---2---2-------|-4---4---4-------4---4---4-------|
  D|-4-------4-------4---4---4-------|-4---4---4-------4---4---4-------|
  A|-4-------4-------4---4---4-------|-2---2---2-------2---2---2-------|
  E|-2-------2-------2---2---2-------|---------------------------------|
                                               My,     my,     my



     G#m                               C#
  e|-2-------2-------2---2---2-------|-2---2---2-------2---2---2-------|
  B|-2-------2-------2---2---2-------|-4---4---4-------4---4---4-------|
  G|-2-------2-------2---2---2-------|-4---4---4-------4---4---4-------|
  D|-4-------4-------4---4---4-------|-4---4---4-------4---4---4-------|
  A|-4-------4-------4---4---4-------|-2---2---2-------2---2---2-------|
  E|-2-------2-------2---2---2-------|---------------------------------|
     lord                              Oh      hm          my      sweet



     G#m                               C#
  e|-2-------2-------2---2---2-------|-2---2---2-------2---2---2-------|
  B|-2-------2-------2---2---2-------|-4---4---4-------4---4---4-------|
  G|-2-------2-------2---2---2-------|-4---4---4-------4---4---4-------|
  D|-4-------4-------4---4---4-------|-4---4---4-------4---4---4-------|
  A|-4-------4-------4---4---4-------|-2---2---2-------2---2---2-------|
  E|-2-------2-------2---2---2-------|---------------------------------|
             lord                              Oh, uh,



     G#m                               C#
  e|-2-------2-------2---2---2-------|-2---2---2-------2---2---2-------|
  B|-2-------2-------2---2---2-------|-4---4---4-------4---4---4-------|
  G|-2-------2-------2---2---2-------|-4---4---4-------4---4---4-------|
  D|-4-------4-------4---4---4-------|-4---4---4-------4---4---4-------|
  A|-4-------4-------4---4---4-------|-2---2---2-------2---2---2-------|
  E|-2-------2-------2---2---2-------|---------------------------------|
     uuh                                       Now, I  really want to




     VERSE

     F#                                D#m
  e|-0-------0-------0---0---0---4---|-4---4---4-------4---4---4-------|
  B|-0-------0-------0---0---0---5---|-5---5---5-------5---5---5-------|
  G|-1-------1-------1---1---1---6---|-6---6---6-------6---6---6-------|
  D|-2-------2-------2---2---2---6---|-6---6---6-------6---6---6-------|
  A|-2-------2-------2---2---2---4---|-4---4---4-------4---4---4-------|
  E|-0-------0-------0---0---0-------|---------------------------------|
     see     you                                       Really  want to



     F#                                D#m
  e|-0-------0-------0---0---0-------|-----4---4-------4---4---4-------|
  B|-0-------0-------0---0---0-------|-----5---5-------5---5---5-------|
  G|-1-------1-------1---1---1-------|-----6---6-------6---6---6-------|
  D|-2-------2-------2---2---2-------|-----6---6-------6---6---6-------|
  A|-2-------2-------2---2---2-------|-----4---4-------4---4---4-------|
  E|-0-------0-------0---0---0-------|---------------------------------|
     be      with you                                  Really  want to



     F#                                A#dim           D#7
  e|-0-----------0---0---0-----------|-4---4---4-------4---4---4-------|
  B|-0-----------0---0---0-----------|-3---3---3-------2---2---2-------|
  G|-1-----------1---1---1-----------|-4---4---4-------4---4---4-------|
  D|-2-----------2---2---2-----------|-3---3---3-------3---3---3-------|
  A|-2-----------2---2---2-----------|---------------------------------|
  E|-0-----------0---0---0-----------|---------------------------------|
     see     you lord         but it   takes   so      long        my




     OUTRO-CHORUS

     G#m                               C#
  e|-2-------2-------2---2---2-------|-2---2---2-------2---2---2-------|
  B|-2-------2-------2---2---2-------|-4---4---4-------4---4---4-------|
  G|-2-------2-------2---2---2-------|-4---4---4-------4---4---4-------|
  D|-4-------4-------4---4---4-------|-4---4---4-------4---4---4-------|
  A|-4-------4-------4---4---4-------|-2---2---2-------2---2---2-------|
  E|-2-------2-------2---2---2-------|---------------------------------|
             lord                      Hmmm    my      lord



     G#m                               C#
  e|-2-------2-------2---2---2-------|-----2---2-------2---2---2-------|
  B|-2-------2-------2---2---2-------|-----4---4-------4---4---4-------|
  G|-2-------2-------2---2---2-------|-----4---4-------4---4---4-------|
  D|-4-------4-------4---4---4-------|-----4---4-------4---4---4-------|
  A|-4-------4-------4---4---4-------|-----2---2-------2---2---2-------|
  E|-2-------2-------2---2---2-------|---------------------------------|
                                               My,     my,     my



     G#m                               C#
  e|-2-------2-------2---2---2-------|-2---2---2-------2---2---2-------|
  B|-2-------2-------2---2---2-------|-4---4---4-------4---4---4-------|
  G|-2-------2-------2---2---2-------|-4---4---4-------4---4---4-------|
  D|-4-------4-------4---4---4-------|-4---4---4-------4---4---4-------|
  A|-4-------4-------4---4---4-------|-2---2---2-------2---2---2-------|
  E|-2-------2-------2---2---2-------|---------------------------------|
     lord                                      My          sweet   lord



     G#m                               C#
  e|-2-------2-------2---2---2-------|-2---2---2-------2---2---2-------|
  B|-2-------2-------2---2---2-------|-4---4---4-------4---4---4-------|
  G|-2-------2-------2---2---2-------|-4---4---4-------4---4---4-------|
  D|-4-------4-------4---4---4-------|-4---4---4-------4---4---4-------|
  A|-4-------4-------4---4---4-------|-2---2---2-------2---2---2-------|
  E|-2-------2-------2---2---2-------|---------------------------------|
                                               My          sweet   lord



     G#m                               C#
  e|-2-------2-------2---2---2-------|-2---2---2-------2---2---2-------|
  B|-2-------2-------2---2---2-------|-4---4---4-------4---4---4-------|
  G|-2-------2-------2---2---2-------|-4---4---4-------4---4---4-------|
  D|-4-------4-------4---4---4-------|-4---4---4-------4---4---4-------|
  A|-4-------4-------4---4---4-------|-2---2---2-------2---2---2-------|
  E|-2-------2-------2---2---2-------|---------------------------------|
                                       My              lord



     G#m                               C#
  e|-2-------2-------2---2---2-------|-2---2---2-------2---2---2-------|
  B|-2-------2-------2---2---2-------|-4---4---4-------4---4---4-------|
  G|-2-------2-------2---2---2-------|-4---4---4-------4---4---4-------|
  D|-4-------4-------4---4---4-------|-4---4---4-------4---4---4-------|
  A|-4-------4-------4---4---4-------|-2---2---2-------2---2---2-------|
  E|-2-------2-------2---2---2-------|---------------------------------|
                                               Hmmmmmmmmmmmmmmmmmmm



     G#m                               C#
  e|-2-------2-------2---2---2-------|-2---2---2-------2---2---2-------|
  B|-2-------2-------2---2---2-------|-4---4---4-------4---4---4-------|
  G|-2-------2-------2---2---2-------|-4---4---4-------4---4---4-------|
  D|-4-------4-------4---4---4-------|-4---4---4-------4---4---4-------|
  A|-4-------4-------4---4---4-------|-2---2---2-------2---2---2-------|
  E|-2-------2-------2---2---2-------|---------------------------------|
                                               Hmm     Hmmmmmmmm



     G#m                               C#
  e|-2-------2-------2---2---2-------|-2---2---2-------2---2---2-------|
  B|-2-------2-------2---2---2-------|-4---4---4-------4---4---4-------|
  G|-2-------2-------2---2---2-------|-4---4---4-------4---4---4-------|
  D|-4-------4-------4---4---4-------|-4---4---4-------4---4---4-------|
  A|-4-------4-------4---4---4-------|-2---2---2-------2---2---2-------|
  E|-2-------2-------2---2---2-------|---------------------------------|
     mmmmmm                                        Ooooooooooooh



     G#m                               C#
  e|-2-------2-------2---2---2-------|-2---2---2-------2---2---2-------|
  B|-2-------2-------2---2---2-------|-4---4---4-------4---4---4-------|
  G|-2-------2-------2---2---2-------|-4---4---4-------4---4---4-------|
  D|-4-------4-------4---4---4-------|-4---4---4-------4---4---4-------|
  A|-4-------4-------4---4---4-------|-2---2---2-------2---2---2-------|
  E|-2-------2-------2---2---2-------|---------------------------------|
                                                   Ooooooooooooh



     G#m                               C#
  e|-2-------2-------2---2---2-------|-2---2---2-------2---2---2-------|
  B|-2-------2-------2---2---2-------|-4---4---4-------4---4---4-------|
  G|-2-------2-------2---2---2-------|-4---4---4-------4---4---4-------|
  D|-4-------4-------4---4---4-------|-4---4---4-------4---4---4-------|
  A|-4-------4-------4---4---4-------|-2---2---2-------2---2---2-------|
  E|-2-------2-------2---2---2-------|---------------------------------|
                                                   My      sweet   lord



     G#m                               C#
  e|-2-------2-------2---2---2-------|-2---2---2-------2---2---2-------|
  B|-2-------2-------2---2---2-------|-4---4---4-------4---4---4-------|
  G|-2-------2-------2---2---2-------|-4---4---4-------4---4---4-------|
  D|-4-------4-------4---4---4-------|-4---4---4-------4---4---4-------|
  A|-4-------4-------4---4---4-------|-2---2---2-------2---2---2-------|
  E|-2-------2-------2---2---2-------|---------------------------------| ....

            
            
Suggest correction
Creating personal tab
Creating personal tab
You can edit any tab online and save it as your Personal.

You can edit, replace or remove any tab part or add personal notes – all changes will be seen only by you.

Personal tabs can be accessed anytime from any device, even offline.
Learn more »
Give kudos to tab author, rate the tab!
1 2 3 4 5
comments
print report bad tab
guest
You may want to rate the tab now too:
select rating
Wanna post a correction for this tab? Suggest correction