Oops, an error
Loading. Please wait.

Run Of The Mill Tab

version 2
version 2

Whole song

4,020 views 18 this week
no commentswrite comment
1 2 3 4 5
excellent!
x 5
add to favorites
launch autoscroll
font size
0
reset
how to read this tab
guitar tuner
Tab Pro tools
  • play this tab
  • loop segment
  • change instrument
  • show fretboard
  • metronome
×
Best way to learn
"Run Of The Mill"
Autoscroll
slow
fast
+/-
esc
set tempo
stop
Contributor
Capo
6th fret
"Run Of The Mill" (Acoustic Demo)
 - Written by George Harrison

CAPO: 6th Fret
All chords are relative to the capos position

INTRO:

George Harrison: "It's called 'Run Of The Mill', this one."
Phil Spector: "Take one."

|-----------3---------3-3-----------------------------------|
|--------0--0---------0-0-0------------0-----0----0--0--0---|
|-----0--0--0--0------0-0-0------2--0--2--0--2/4--2--0--2---|
|-----0--0--0--0--0h2-----0---------------------------------|
|-----2--2--------------------------------------------------|
|--3--3-----------------------------------------------------|

|--------------------------------2-2-2-2-2-2----2-2----2-2--|
|-----1-1-1-1-----1-1---1-1------3-3-3-3-3-3----3-3----3-3--|
|-----0-0-0-0-----0-0---0-0---2--2-2-2-2-2-2----2-2----2-2--|
|-----2-2-2-2-----2-2---2-2---0--------------0h2------------|
|--3-----------2------------------------------------0h2-----|
|-----------------------------------------------------------|

VERSE:

 Ev'ry one has choice         when to and not to raise their
|-----------3---------3-3-----------------------------------|
|--------0--0---------0-0-0------------0-----0----0--0--0---|
|-----0--0--0--0------0-0-0------2--0--2--0--2/4--2--0--2---|
|-----0--0--0--0--0h2-----0---------------------------------|
|-----2--2--------------------------------------------------|
|--3--3-----------------------------------------------------|

   voi   -    ces             It's you that decides
|--------------------------------2-2-2-2-2-2----2-2----2-2--|
|-----1-1-1-1-----1-1---1-1------3-3-3-3-3-3----3-3----3-3--|
|-----0-0-0-0-----0-0---0-0---2--2-2-2-2-2-2----2-2----2-2--|
|-----2-2-2-2-----2-2---2-2---0--------------0h2------------|
|--3-----------2------------------------------------0h2-----|
|-----------------------------------------------------------|

 Which way you will turn while feelin' that our love's not your con
|-----------3---------3-3-----------------------------------|
|--------0--0---------0-0-0------------0-----0----0--0--0---|
|-----0--0--0--0------0-0-0------2--0--2--0--2/4--2--0--2---|
|-----0--0--0--0--0h2-----0---------------------------------|
|-----2--2--------------------------------------------------|
|--3--3-----------------------------------------------------|

 - cern                     It's you that decides
|--------------------------------2-2-2-2-2-2----2-2----2-2--|
|-----1-1-1-1-----1-1---1-1------3-3-3-3-3-3----3-3----3-3--|
|-----0-0-0-0-----0-0---0-0---2--2-2-2-2-2-2----2-2----2-2--|
|-----2-2-2-2-----2-2---2-2---0--------------0h2------------|
|--3-----------2------------------------------------0h2-----|
|-----------------------------------------------------------|

CHORUS:

        No one   around  you      will carry the blame for you
|----------------------------------------------------------------------|
|--1-1-1-1-1-1-1-1--3-3-3-3-3-3-3-3--0-0-0-0-0-0-0-0--0-0-0-0-3-3-3-3--|
|--2-2-2-2-2-2-2-2--4-4-4-4-4-4-4-4--0-0-0-0-0-0-0-0--1-1-1-1-1-1-1-1--|
|--2-2-2-2-2-2-2-2--4-4-4-4-4-4-4-4--2-2-2-2-2-2-2-2--2-2-2-2-2-2-2-2--|
|--0----------------2----------------2-2-2-2-2-2-2-2--2-2-2-2-2-2-2-2--|
|------------------------------------0----------------0----------------|

        No one   around  you   will love you today then throw it all away
|-----------------------------------------------------1-1-1-1-1-1-1-1--|
|--1-1-1-1-1-1-1-1--3-3-3-3-3-3-3-3--1-1-1-1-1-1-1-1--0-0-0-0-0-0-0-0--|
|--2-2-2-2-2-2-2-2--4-4-4-4-4-4-4-4--0-0-0-0-0-0-0-0--2-2-2-2-2-2-2-2--|
|--2-2-2-2-2-2-2-2--4-4-4-4-4-4-4-4--2-2-2-2-2-2-2-2--1-1-1-1-1-1-1-1--|
|--0----------------2----------------3----------------2-------2--------|
|----------------------------------------------------------------------|

VERSE:

And tomorrow when you rise
Another day for you to realize me
Or send me down again
As the days stand up on end
You've got me wondering how I lost your friendship
But I see it in your eyes

CHORUS:

Though I'm beside you I can't carry the lame for you
I may decide to get out with your blessing
Where I'll carry on guessing

VERSE:

Now how high will you leap
Will you make enough for you to reap it
Only you'll arrive
At your own made end
With no one but yourself to be offendin'
It's you that decides



Notes:
------
*George plays it rather quick and tends to shortcut the end of the verses in the demo.
**For two guitars this can sound really fantastic. Just move the capo up to the 
7th fret and have the second guitar play the D, Bm, D, Bm, G, Bm, A, chord progression.
comments
print report bad tab
I want to post or [tab]
guest
You may want to rate the tab now too:
select rating
Please do not post tabs as comments. Select "correction" instead!