Oops, an error
Loading. Please wait.

Something Chords

68,749 views 540 this week
15 commentsread comments
1 2 3 4 5
excellent!
x 134
add to favorites
launch autoscroll
font size
0
reset
transpose
0
reset
simplify chords
display chords
guitar tuner
Tab Pro tools
  • play this tab
  • loop segment
  • change instrument
  • show fretboard
  • metronome
×
Best way to learn
"Something"
Autoscroll
slow
fast
+/-
esc
set tempo
stop
Contributor
Difficulty
intermediate
"Something" 
By: George Harrison
Chords and Tab by: elhapps


Intro:
F - D# - G/D - C                (B|-10-13r12p10-11-12-13--|)

C                         C7M
Something in the way she moves,
C7                        F             C
Attracts me like no other lover. (E|--1-0--|)
D                D7        G  Am7 G/B     
Something in the way she woos me.

Am                      Ammaj7
I don't wanna leave her now,    (G|---7-7b9----|)
Am7                    D7
You know I believe, and how.    (G|----7b9-----|)
 
F - D# - G/D - C                (B|-10-13r12p10-11-12-13--|)

C                           C7M
Somewhere in her smile she knows,
C7                          F             C
That I don't need no other lover.  (E|--1-0--|)
D                 D7          G Am7 G/B
Something in her style that shows me.

Am                      Ammaj7
I don't wanna leave her now,
Am7                     D7
You know I believe and how.    (G|----7b9--5--|)

F - D# - G/D - A                (G|-10-13r12p10-11-12-12/14--|)                        

A            A7M               F#m F#m/E
You're asking me will my love grow,
         D        G           A
I don't know,     I don't know.   (E|-5-4-3-2-1-0-|)
A            A7M               F#m F#m/E
You stick around now, it may show,
         D        G           C
I don't know,     I don't know.   (A|-3-2-0-| E|-3-| D|-2-0-| A|-3-|)


Guitar Solo:

   C            C7M                       C7                                  F 
e|---------------------------------------|----------------------8-8--10b11p8-10b12p8-------|    
b|-------8--------------8b10r8b10r8------|-------8h10p8-10/11------------------------10----|    
g|--7/9----9-------7/9---------------9---|--7/9--------------------------------------------|   
D|---------------------------------------|-------------------------------------------------|    
A|---------------------------------------|-------------------------------------------------|    
E|---------------------------------------|-------------------------------------------------|    
   F          C           D       D7            G          Am7      G/B
e|--------8-8--------------------------------------------------------8/9-8-6-6/12-11-10----|   
b|--8/10------------8-8------------7-7---b12r10-10b12r10b12r10p8---8-----------------------|   
g|-------------7/9---------------7---------------------------------------------------------|    
D|------------------------7-b9r8-----------------------------------------------------------|   
A|-----------------------------------------------------------------------------------------|    
E|-----------------------------------------------------------------------------------------|    
    Am         Ammaj7       Am7   D7                     F            D# G/D C
e|-------------------------------------10b12-10p8h10p8-------------------------------------|
b|---------------------------------8--------------------10---13r12p10-11-12-13-------------|
g|---7~~~~p5--7~~~~p5----7~~5-7/9----------------------------------------------------------|
D|-----------------------------------------------------------------------------------------|
A|-----------------------------------------------------------------------------------------|
E|-----------------------------------------------------------------------------------------|

/ = slide up
h = hammer on
p = pull off
b = bend
r = release
~ = vibrato

C                         C7M
Something in the way she knows,
C7                        F                  C
And all I have to do is think of her. (E|--1-0--|)
D                  D7         G  Am7 G/B  
Something in the things she shows me.

Am                      Ammaj7
I don't wanna leave her now.
Am7                     D7
You know I believe and how.     (G|-7h9-| B|-8-| e|-10b12|)

F - D# - G/D - A                (B|-10-13r12p10-11-12-12/14--|) (e|-16-15-14--|)
  
F - D# - G/D - C                (B|-10-13r12p10-11-12-13--|)



Note: If you want to do the solo, do it listening to the original song to learn how to do some 
parts that it seems a bit difficult.
Don't forget to comment and rate :)
comments
print report bad tab
15 comments total. Showing first comments. show 3 bad comments
I want to post or [tab]
guest
You may want to rate the tab now too:
select rating
Please do not post tabs as comments. Select "correction" instead!