Oops, an error
Loading. Please wait.

While My Guitar Gently Weeps Acoustic tab

version 5
version 5

Whole song

Interactive

1,216 views 141 this week
no commentswrite comment
1 2 3 4 5
1 last vote to show rating
add to favorites
×
Save as Personal and add changes to this tab that will be seen only by you. Learn more ›
×
You can save this tab as Personal to edit and correct it or add notes. All changes will be seen only by you. Learn more »
launch autoscroll
font size
0
reset
how to read this tab
guitar tuner
backing track
0:00
0:00
edit
Autoscroll
slow
fast
+/-
esc
set tempo
stop
About this tab version
This is a tab that simplifies the overall song. It uses a capo on the fifth fret, instead of no capo at all. It shows both tabs, chords, structure and timestamps for the song for easy guiding. Was this info helpful? Yes No
Hello People!
The following link takes you to the music video on YouTube and I will be posting timestamps to that video only
In the bottom of the tab follows a structure over the song.
Feel free to comment any corrections.
Enjoy!

https://www.youtube.com/watch?v=VJDJs9dumZI for music video and timestamps.

(This song is a mix of strumming and single notes picking)

Capo on the fifth fret - Standard Tuning.


[Intro (0:00 - 0:18)]

  Dm           Dm/C              Dm/B               
e|---1-1-------------1----------------1---------------------------|
B|---3--3--------------3----------------3-----------------3-------|
G|---2----2--------------2----------------2-----------------0-----|
D|0--0--------------------------------------------------------0---|
A|-------------3--3---------3-----2--2--------2-----1--1----------|
E|----------------------------------------------------------------|
  Dm         C/D       Dm       (Hold untill verse)
e|1-0h1p0--------------1---1----1------------------|
B|3------2----3-1------2-----2--2------------------|
G|2--------------------3--------3------------------|
D|0-----------2--------0--0-----0------------------|
A|------------3------------------------------------|
E|-------------------------------------------------|


[Verse (0:19 - 0:49)]

Doing the verses, the strumming is a bit more "loose" and does not highlight the light
notes as much in the intro, but still highlights the root notes frequently.
(Occasionally you want to hit the high E string (Listen to the song)).

  Dm           Dm/C              Dm/B                          Dm
e|1-1-------------1----------------1---------------------------1---|
B|3--3--------------3----------------3-----------------3-------3---|
G|2----2--------------2----------------2-----------------0-----2---|
D|0--------------------------------------------------------0---0---|         
A|-------------3--3---------3-----2--2--------2-----1--1-----------|
E|-----------------------------------------------------------------| 

  C        G          A
e|---------1--1-1----------------|
B|1--1-1-------------2--2-2-2----|
G|-------------------2--2-2-2----|
D|2--2-2-------------2--2-2-2----|
A|3--3-3-------------------------|
E|---------3--3-3----------------|

  Dm           Dm/C              Dm/B                          Dm
e|1-1-------------1----------------1---------------------------1---|
B|3--3--------------3----------------3-----------------3-------3---|
G|2----2--------------2----------------2-----------------0-----2---|
D|0--------------------------------------------------------0---0---|         
A|-------------3--3---------3-----2--2--------2-----1--1-----------|
E|-----------------------------------------------------------------| 

  C        F          A
e|-------------------------------|
B|1--1-1---1--1-1-----2--2-2-2---|
G|---------2--2-2-----2--2-2-2---|
D|2--2-2---3--3-3-----2--2-2-2---|
A|3--3-3---3--3-3----------------|
E|-------------------------------|


[Chorus (0:50 - 1:20)]

Strum even harder during chorus, but don't forget to highlight the high E string.
(Each chord is about 4 beats)

  D      F#m     Bm      F#m      Em       Em       A       A
e|2------2--------2-------2--------0-------0--------0-------0--------|
B|3------2--------3-------2--------0-------0--------2-------2--------|
G|2------2--------4-------2--------0-------0--------2-------2--------| 
D|-------4--------4-------4--------2-------2--------2-------2--------|          x2
A|-------4--------2-------4--------2-------2--------0-------0--------|
E|-------2--------2-------2--------0-------0--------0-------0--------|


[Outro (3:03 -3:20)]

e|1-0h1p0---------------|
B|3------2----3-1-------|
G|2---------------------|
D|0-----------2---------|   x4 + Fade out
A|------------3---------|
E|----------------------|


Structure:
   - Intro
   - Verse
   - Chorus
   - Verse
   - Chorus
   - Verse
   - Outro

************************************
| h   Hammer-on
| p   Pull-off
************************************

            
            
Suggest correction
Creating personal tab
Creating personal tab
You can edit any tab online and save it as your Personal.

You can edit, replace or remove any tab part or add personal notes – all changes will be seen only by you.

Personal tabs can be accessed anytime from any device, even offline.
Learn more »
Give kudos to tab author, rate the tab!
1 2 3 4 5
comments
print report bad tab
guest
You may want to rate the tab now too:
select rating
Wanna post a correction for this tab? Suggest correction