Oops, an error
Loading. Please wait.

Its Been So Long bass

64 views 6 this week
no commentswrite comment
1 2 3 4 5
3 more votes to show rating
add to favorites
×
Save as Personal and add changes to this tab that will be seen only by you. Learn more ›
×
You can save this tab as Personal to edit and correct it or add notes. All changes will be seen only by you. Learn more »
launch autoscroll
font size
0
reset
guitar tuner
edit
Autoscroll
slow
fast
+/-
esc
set tempo
stop
Author
It’s Been So Long
1975 Single release by American Soul & Disco singer George McCrae.  Reached 
Number 4 in UK charts.  Tab by bass5961. Original bass player is playing
Triples, sadly, due arthritis, I can’t do that anymore. So this is how I
Would play it on stage.  More of a simplified version.

Intro:
G|------------------------------------------------------------------------|
D|------------------------------------------------------5-5--3-3--2-2-----|
A|--------------------------------------------------------------------5-5-|
E|-3-3-3-3-3-3-3-3---3-3-3-3-3-3-3-3---3-3-3-3-3-3-3-3--------------------|

Chorus 1:
G|---------------------------------------------------------------------|
D|-----------------2-2-2-2-2-2-2-2---3-3-3-3-3-3-3-3---5-5-5-5---------|
A|-3-3-3-3-3-3-3-3-----------------------------------------------------|
E|-------------------------------------------------------------3-3-3-3-|

G|---------------------------------------------------------------------|
D|-----------------2-2-2-2-2-2-2-2---3-3-3-3-3-3-3-3---5-5-5-5-5-5-5-4-|
A|-3-3-3-3-3-3-3-3-----------------------------------------------------|
E|---------------------------------------------------------------------|

Verse :                                               (Play This Bit x2)
G|---------------------------------------------------------------------|
D|-3-3-3-3-3-3-3-3---7-7-7-7-7-7-7-7---5-5-5-5-5-5-5-------------------|
A|---------------------------------------------------5-----------------|
E|-----------------------------------------------------3-3-3-3-3-3-3-3-|

Chorus 2:
G|---------------------------------------------------------------------|
D|-----------------2-2-2-2-2-2-2-2---3-3-3-3-3-3-3-3---5-5-5-5-5-5-5-5-|
A|-3-3-3-3-3-3-3-3-----------------------------------------------------|
E|---------------------------------------------------------------------|

G|---------------------------------------------------------------------|
D|-----------------2-2-2-2-2-2-2-2---3-3-3-3-3-3-3-3---5-5-5-5-5-5-5-4-|
A|-3-3-3-3-3-3-3-3-----------------------------------------------------|
E|---------------------------------------------------------------------|

Verse :                                               (Play This Bit x2)
G|---------------------------------------------------------------------|
D|-3-3-3-3-3-3-3-3---7-7-7-7-7-7-7-7---5-5-5-5-5-5-5-------------------|
A|---------------------------------------------------5-----------------|
E|-----------------------------------------------------3-3-3-3-3-3-3-3-|

Chorus 1:
G|---------------------------------------------------------------------|
D|-----------------2-2-2-2-2-2-2-2---3-3-3-3-3-3-3-3---5-5-5-5---------|
A|-3-3-3-3-3-3-3-3-----------------------------------------------------|
E|-------------------------------------------------------------3-3-3-3-|

G|---------------------------------------------------------------------|
D|-----------------2-2-2-2-2-2-2-2---3-3-3-3-3-3-3-3---5-5-5-5-5-5-5-5-|
A|-3-3-3-3-3-3-3-3-----------------------------------------------------|
E|---------------------------------------------------------------------|

Chorus 3:                                                (Play This Bit x2)
G|---------------------------------------------------------------------|
D|-----------------2-2-2-2-2-2-2-2---3-3-3-3-3-3-3-3---5-5-5-5---------|
A|-3-3-3-3-3-3-3-3-----------------------------------------------------|
E|-------------------------------------------------------------3-3-3-3-|

Outro:                                              (Repeat To Fade/End)
G|---------------------------------------------------------------------|
D|-----------------2-2-2-2-2-2-2-2---3-3-3-3-3-3-3-3---5-5-5-5-5-5-5-5-|
A|-3-3-3-3-3-3-3-3-----------------------------------------------------|
E|---------------------------------------------------------------------|


            
            
Suggest correction
Creating personal tab
Creating personal tab
You can edit any tab online and save it as your Personal.

You can edit, replace or remove any tab part or add personal notes – all changes will be seen only by you.

Personal tabs can be accessed anytime from any device, even offline.
Learn more »
Give kudos to tab author, rate the tab!
1 2 3 4 5
comments
print report bad tab
guest
You may want to rate the tab now too:
select rating
Wanna post a correction for this tab? Suggest correction